» » »

Ektomorf, I Choke Bass tabs (ver.1)

Artists:  A B C D E F G H I J K L M N O P Q R S T U V W X Y Z # 

I Choke Bass tabs (ver.1)

Ektomorf Tabs
Rating:
4/5 (1 vote)
I Choke lessons Tabs too difficult? Try these video lessons and learn fast
                Band: Ektomorf

Drop B Tuning:
B G B E

Intro
E |---------------------------------|---------------------------------|
B |---------------------------------|---------------------------------|
G |---------------------------------|---------------------------------|
B |---------------------------11\0--|-------------------------------0-|

Verse
E |---------------------------------|---------------------------------|
B |---------------------------------|---------------------------------|
G |---------------------------------|---------------------------------|
B |-000000-000000-000000-000000-0---|-000000-000000-000000-000000-0---|

Chorus
E |----------------------------------|
B |----------------------------------|
G |----------------------------------| x 4
B |11\0--0--1-0--1-0-1-4-1-----------| 

Pre-Verse
E |---------------------------------|
B |---------------------------------|
G |---------------------------------|  x 4
B |---------------------------11\0--|

Verse
E |---------------------------------|
B |---------------------------------|
G |---------------------------------| x 5 
B |-000000-000000-000000-000000-----|

Chorus
E |----------------------------------|
B |----------------------------------|
G |----------------------------------| x 4
B |11\0--0--1-0--1-0-1-4-1-----------| 

Interlude
E |----------------------------------|
B |----------------------------------|
G |----------------------------------| x 8
B |-00-------------------------------| 

Interlude part 2
E |----------------------------------|
B |----------------------------------|
G |----------------------------------| x 4
B |-0-0-0-001------------------------| 

Pre-Chorus
E |---------------------------------|
B |---------------------------------|
G |---------------------------------|  x 4
B |---------------------------11\0--|

Chorus
E |----------------------------------|
B |----------------------------------|
G |----------------------------------| x 4
B |11\0--0--1-0--1-0-1-4-1-----------| 

Outro
E |---------------------------------|
B |---------------------------------|
G |---------------------------------| x 4 
B |-000000-000000-000000-000000-----|

That's it !

If there's anything wrong, pls leave a comment ! ;)

greetz from hamburg, germany!
            
Submit corrections

comments powered by Disqus
↑ Back to top | Ektomorf Bass for I Choke. Lyrics for acoustic guitar and electric guitar. Tablatures and chords are parodies/interpretations of the original songs. You may use it for private study, scholarship, research or language learning purposes only