» » »

Eisregen, Leichenlager Tabs (ver.2)

Artists:  A B C D E F G H I J K L M N O P Q R S T U V W X Y Z # 

Leichenlager Tabs (ver.2)

Eisregen Tabs
 Rating:
4/5 (4 votes)
Leichenlager lessons Tabs too difficult? Try these video lessons and learn fast
1
                Band: Eisregen (w00t!)
Track: Nr.2 Leichenlager
           And i want to thank M-A-N, for tabbing the song 50% correctly ;-) i 
used parts of his tab, but improved some/many parts =)


Intro (version 1):
clean
e|---------------------------------------------------------------------|
B|---------------------------------------------------------------------|
G|-----2-------2---------------------------4-------4-------4-------4---|
D|---4---4---4---4-------5-------5-------2---2---2---2---2---2---2---0-|  x4
A|-4-------4-------0---3---3---3---3---2-------2-------2-------2-------|
E|-------------------3-------3-------3---------------------------------|


if you dont like this version, play this one instead
Intro (version 2):
clean
e|---------------------------------------------------------------------|
B|---------------------------------------------------------------------|
G|-----2-------2---------0-------0-------------------------------------|
D|---4---4---4---4-------------------------5-------5-------5-------5-0-|  x4
A|-4-------4-------0---3---3---3---3-----7---7---7---7---7---7---7-----|
E|-------------------3-------3-------3-7-------7-------7-------7-------|


Riff 1:

e|--------------------|
a|--------------------|
g|--------------------|
D|-4---4---4---4---7--|  x4
A|-4---4---4---4---5--|
E|-2---2---2---2---5--|


Riff 2:

e|----------------------|
a|----------------------|
g|----------------------|
D|--7---6---3-----3-2-0-|  x3
A|----------------------|
E|----------------------|


4th time play it like this:

e|--------------|
a|--------------|
g|--------------|
D|--7---6---3---|  x1
A|--------------|
E|--------------|


Then play Riff 1 again 4 times.

Repeat Intro 4 times.


Riff 3:

e|--------------------------------------|
a|--------------------------------------|
g|-4-44-444-5-55-555--------------------|
D|-4-44-444-5-55-555-5-55-555-4-44-4422-|  x6
A|-2-22-222-3-33-333-5-55-555-4-44-4422-|
E|-2-22-222-3-33-333-3-33-333-2-22-2200-|


Riff 4:
clean
e|-----------------------------------|
B|-----------5---------------------5-|
G|---------4---4-----0-0-0-----2-4---|
D|-0-2-------------------------------|  x1
A|-----------------------------------|
E|-----------------------------------|

e|-----------------------------|
B|-----5---------------------5-|
G|---4---4-----0-0-0----2--4---|
D|-----------------------------|   x15
A|-----------------------------|
E|-----------------------------|


Riff 5:

e|-----------------------|
a|-----------------------|
g|-----------------------|
D|-44444444-7777-99-1010-|  x8
A|-44444444-7777-99-1010-|
E|-22222222-5555-77--8-8-|


Riff 6:

e|---|
a|---|
g|---|
D|-2-|
A|-2-| xI won't count this XD It's easy to hear how long it's played ;-)
E|-0-|                (just play till you wrist hurts XD)
  PM


Riff 5 again 8 times

Riff 3 6 times (and watch for the change of speed, it gets slower here)


Outro:
clean
|-------------------------------------------------------------------------|
Damn, I just don't get the outro >.< I'm tired now, but if ANYONE can tell
me how to play it, PLEASE talk to me =)
|-------------------------------------------------------------------------|


Song order again (overview):

Intro   x4
Riff 1  x4
Riff 2  x4
Riff 1  x4
Inro    x4
Riff 3  x6
Riff 4  x16
Riff 5  x8
Riff 6  x oh, nice weather today, huh?
Riff 5  x8
Riff 3  x6
Outro   I think 4 times
            
Submit corrections

comments powered by Disqus
↑ Back to top | Eisregen Tabs for Leichenlager. Lyrics for acoustic guitar and electric guitar. 1 Tablatures and chords are parodies/interpretations of the original songs. You may use it for private study, scholarship, research or language learning purposes only