>
 >
Deutschland In Flammen

Deutschland In Flammen Guitar Tabs

Eisregen - Deutschland In Flammen chords, tabs, tablatures, lyrics

Guitar lessons | Add/correct | Request | Top 50 tabs Artists:  A B C D E F G H I J K L M N O P Q R S T U V W X Y Z 0-9

Deutschland In Flammen Guitar Tabs – Eisregen

CD, Sheet music, Poster

Do you like Deutschland In Flammen? Share with your friends now
TabsTabs v2
.  - palm mute           /  - slide up to
\  - slide down to       ~  - vibrato
h  - hammer on           b  - Bend
p  - pull off            Suffixes for bend
t  - tap                 f  - full bend    h - half bend
ph - pinched harmonic    q  - quarter bend t - tap bend
*  - see comment         ^  - Hold bend    r release bend
x  - Stuccatto           ~  - vibrato bend
,  - slight palm mute    () - ghost note, sustained note
"  - tremolo note        <> - Trill

Tuning E A D G B E

Note: I donīt really know if this tuning is correct but Iīm pretty
      sure the tabs are correct!

Riff A1  2x
|-------------------------------------------------------------------|
|-------------------------------------------------------------------|
|-------------------------------------------------------------------|
|-------------------------------------------------------------------|
|--8---8-8-8-8-8-8-12--12121212121211--1111111111118---8-8-8-8-8-8--|
|--6---6-6-6-6-6-6-10--1010101010109---9-9-9-9-9-9-6---6-6-6-6-6-6--|
       . . . . . .     . . . . . .     . . . . . .     . . . . . .

Riff A2  1x
|-------------------------------------------------------------------|
|-------------------------------------------------------------------|
|-------------------------------------------------------------------|
|-------------------------------------------------------------------|
|--8---8-8-8-8-8-8-6---6-6-6-6-6-6-3-3-3-3-3-3-3-3-4-4-4-4-4-4-4-4--|
|--6---6-6-6-6-6-6-4---4-4-4-4-4-4-1-1-1-1-1-1-1-1-2-2-2-2-2-2-2-2--|
       . . . . . .     . . . . . . . .   . .   .   . .   . .   .

Riff B   3x
|-------------------------------------------------------------------|
|-------------------------------------------------------------------|
|-------------------------------------------------------------------|
|-------------------------------------------------------------------|
|--9-9-9-9-9-9-9-9-8-8-8-8-8-8-8-8-11111111111111119-9-9-9-9-9-9-9--|
|--7-7-7-7-7-7-7-7-6-6-6-6-6-6-6-6-9-9-9-9-9-9-9-9-7-7-7-7-7-7-7-7--|
   . . . . . . . . . . . . . . . . . . . . . . . . . . . . . . . .

Then play
Riff A1  1x
Riff A2  1x
Riff A1  1x
Riff A2  1x

Riff C1  2x
|-------------------------------------------------------------------|
|-------------------------------------------------------------------|
|-------------------------------------------------------------------|
|----------9-----11------------------------9-----11-----------------|
|--111111117-11119-1111111111------111111117-11119-9----------------|
|--9-9-9-9---9-9---9-9-9-9-9-------9-9-9-9---9-9---7----------------|
   . . . .   . .   . . . . .       . . . .   . .

Riff C2  2x
|-------------------------------------------------------------------|
|-------------------------------------------------------------------|
|-------------------------------------------------------------------|
|----------11----13------------------------11----13-----------------|
|--131313139-1313111313131313------131313139-13131111---------------|
|--11111111--1111--1111111111------11111111--1111--9----------------|
   . . . .   . .   . . . . .       . . . .   . .

Then play
Riff C1  2x
Riff C2  2x
Riff A1  1x
Riff A2  1x
Riff A1  1x
Riff A2  1x
Riff B   3x

Riff D1  4x
|-----------|
|-----------|
|-----------|
|-----------|
|--6-----2--|
|--4-----0--|

Riff D2  2x
|-------------------------------------------------------------------|
|-------------------------------------------------------------------|
|-------------------------------------------------------------------|
|-------------------------------------------------------------------|
|--6-6-6-6-6-6-6-6-6-6-6-6-6-6-6-6-2-2-2-2-2-2-2-2-2-2-2-2-2-2-2-2--|
|--4-4-4-4-4-4-4-4-4-4-4-4-4-4-4-4-0-0-0-0-0-0-0-0-0-0-0-0-0-0-0-0--|
   . .   . .   .   . .   . .   .   . .   . .   .   . .   . .   .

End the song with
Riff D1  1x


Have fun strumming!





Comments


Popular Eisregen tabs & chords
Blutgeil 1 Tabs
Das Kleine Leben Tabs
Die Seele Der Totgeburt Tabs
Elektrohexe Tabs
Feindbild Mensch Tabs
Leichenlager 1 Tabs
Meine Tote Russische Freundin Tabs
Nur Dein Fleisch Tabs
Schlachthaus Blues Tabs
Schwarzer Gigolo Tabs


Song lyrics



↑ Back to top | Tablatures and chords are parodies/interpretations of the original songs. You may use it for private study, scholarship, research or language learning purposes only
© 2014 AZChords.com Contact us | Privacy policy | DMCA | Add/correct tabs | Request tabs | Top 50 tabs