» » »

Eisley, Better Love Tabs (ver.1)

Artists:  A B C D E F G H I J K L M N O P Q R S T U V W X Y Z # 

Better Love Tabs (ver.1)

Eisley Tabs
 Rating:
4/5 (7 votes)
Better Love lessons Tabs too difficult? Try these video lessons and learn fast
                -------------------------------------------------------------------------------
-------------------------------------------------------------------------------
Tuning: Standard 
This is just a start. I plan on figuring out both guitars for the entire 
song soon, it’s just so fun to play I feel like I should share what I have
so far. Just listen for the strum patterns and chord changes. 

Intro 
e|---------------------------------------------------------------------------|
B|---------------------------------------------------------------------------|
G|---0--0--0------0----------------------------------------------------------|
D|---------------------------------------------------------------------------|
A|-77-77-77-7s5-55-----------------------------------------------------------|
E|---------------------------------------------------------------------------|

Verse: Basically play the intro but listen for these variations              
e|---------------------------------------------------------------------------|
B|---0---0---0---0~-----------------------------0----------------------------|
G|----0-------0-------and -----------1212--------0---------------------------|
D|-----------------------------------x--x-101010-----------------------------|
A|-77--77--77--77--------------------1010-x-x-x------------------------------|
E|----------------------------------------8-8-8------------------------------|

Pre-Chorus
e|---------------------------------------------------------------------------|
B|----------------------8888-------------------------------------------------|
G|--7h9-9999-----------------------------------------------------------------|
D|------------7h9 99---------------------------------------------------------|
A|-------------------77------------------------------------------------------|
E|---------------------------------------------------------------------------|

Chorus
e|---------------------------------------------------------------------------|
B|-3---3---3-----------------------------------------------------------------|
G|-4-4-4---4-4---------------------------------------------------------------|
D|-5-5-5-2-5-5-7-------------------------------------------------------------|
A|-3-5-3-2-3-5-7-------------------------------------------------------------|
E|---3---0---3-5-------------------------------------------------------------|

Solo (Missing 2nd half) any suggestions for 2:19 on appreciated
e|---------------------------------------------------------------------------|
B|----8---7—7h8s5------------------------------------------------------------|
G|-7h9—7h9-------------------------------------------------------------------|
D|---------------7h9---------------------------------------------------------|
A|------------------7--------------------------------------------------------|
E|---------------------------------------------------------------------------|

Outro
e|---------------------------------------------------------------------------|
B|---------------------------------------------------------------------------|
G|----4444-------------------------------------------------------------------|
D|-2~-5555-------------------------------------------------------------------|
A|-2~-5555-------------------------------------------------------------------|
E|-0~-3333-------------------------------------------------------------------|
            
Submit corrections

comments powered by Disqus
↑ Back to top | Eisley Tabs for Better Love. Lyrics for acoustic guitar and electric guitar. Tablatures and chords are parodies/interpretations of the original songs. You may use it for private study, scholarship, research or language learning purposes only