>
 >
Chicken 1

Chicken 1 Guitar Tabs

Eighties Matchbox B-Line Disaster - Chicken 1 chords, tabs, tablatures, lyrics

Guitar lessons | Add/correct | Request | Top 50 tabs Artists:  A B C D E F G H I J K L M N O P Q R S T U V W X Y Z 0-9

Chicken 1 Guitar Tabs – Eighties Matchbox B-Line Disaster

CD, Sheet music, Poster

Do you like Chicken 1? Share with your friends now
Bass TabsTabsTabs v2Tabs v3
intro:guitar 1 (verses aswell)

e|-----------------2-2-2-2-2-2-2-2-|
B|-5-5-5-5-5-5-5-5-2-2-2-2-2-2-2-2-|
G|-4-4-4-4-4-4-4-4-3-3-3-3-3-3-3-3-|
D|-2-2-2-2-2-2-2-2-4-4-4-4-4-4-4-4-|
A|-----------------4-4-4-4-4-4-4-4-|
E|-----------------2-2-2-2-2-2-2-2-|

gtr 2

e|--------------------------------|
B|--------------------------------|
G|--------------------------------|
D|--------------------------------|
A|-------2^---------2^---------2^-|
E|-0-0-3------0-0-3------0-0-3----|

verse 1/ man riff

gtr 1 = intro quietly

gtr 2

e|-------------------|
B|-------------------|
G|-------------------|
D|-------------------|
A|-------2^-------1^-|
E|-0-0-3-----0-0-3---|

bridge

gtr 1

e|---------------------------------|
B|---------------------------------|
G|---------------------------------|
D|-5-5-5-5-5-5-5-4-4-4-4-3-3-3-3-2-|
A|-5-5-5-5-5-5-5-4-4-4-4-3-3-3-3-2-|
E|-3-3-3-3-3-3-3-2-2-2-2-1-1-1-1-0-|

gtr 2

e|-----------------|
B|-----------------|
G|-----------------|
D|-----------------|
A|-5-5-5-5/4-4/1-1-|
E|-3-3-3-3/2-2/1-1-|


main riff

bridge

chorous 1

gtr 1


      times 2       times about 4  
e|-0-3-0--3-3-3-3-|-3-0-3-6-6-6-6-|
B|-0-3-0--3-3-3-3-|-3-0-3-6-6-6-6-|
G|-1-4-1--3-3-3-3-|-4-1-4-7-7-7-7-|
D|-2-5-2--3-3-3-3-|-5-2-5-8-8-8-8-|
A|-2-5-2--1-1-1-1-|-5-2-5-8-8-8-8-|
E|-0-3-0----------|-3-0-3-6-6-6-6-|

gtr 2


     times 2           times about 4  times 2 gtr 1 does this aswell
e|-------------------|--------------|---------------------------------|
B|-------------------|--------------|---------------------------------|
G|-------------------|--------------|---------------------------------|
D|-2-2-5-2-2-8-8-8-8-|-5-2-5-888888-|-2-2-2-2-2-2-2-2-8-8-8-8-8-8-8-8-|
A|-2-2-5-2-2-8-8-8-8-|-5-2-5-888888-|-2-2-2-2-2-2-2-2-8-8-8-8-8-8-8-8-|
E|-0-0-3-0-0-6-6-6-6-|-3-0-3-666666-|-0-0-0-0-0-0-0-0-6-6-6-6-6-6-6-6-|

bridge

verse 2 same as verse 1 but only bass and gtr 2 play

bridge

verse 3 same as verse 1

chorous 2 same as before but miss out first bar

verse 3

gtr 1

e|----------------|-|
B|----------------|-|
G|----------------|-| 2nd bar is just the first 2 chords stummed realy fast
D|----------------|-|
A|----------------|-|
E|-0-0-3-0--0-3-0-|-|

gtr 2 (miss out first bar done by gtr1)

e|-999999999999/888888888888-|
B|-999999999999/888888888888-|
G|-999999999999/888888888888-|
D|---------------------------|
A|---------------------------|
E|---------------------------|

bridge 

chorous 3 is only 1st bar of chorous 1.

bride

thankyou!





Comments


Popular Eighties Matchbox B-Line Disaster tabs & chords
Morning Has Broken Bass Tabs
Psychosis Safari Bass Tabs
Celebrate Your Mother 1 Tabs
Morning Has Broken Tabs
Pshychosis Safari Tabs
Pshychosis Safari 1 Tabs
Psychosis Safari 1 Tabs
So Long Goodbye Tabs
Temple Music Tabs
Drunk On The Blood Ukulele


Song lyrics



↑ Back to top | Tablatures and chords are parodies/interpretations of the original songs. You may use it for private study, scholarship, research or language learning purposes only
© 2014 AZChords.com Contact us | Privacy policy | DMCA | Add/correct tabs | Request tabs | Top 50 tabs