» » »

Chicken Tabs (ver.2)

Artists:  A B C D E F G H I J K L M N O P Q R S T U V W X Y Z # 

Chicken Tabs (ver.2)

Eighties Matchbox B-Line Disaster
Rating:
0/5 (0 votes)

Hard to play? Try these video lessons and learn fast.
                i've tabbed this before but you cant realy play the previous ones as fast
as you should so here we go!

intro

|-0-0-0-0-0-0-0-0-0-0-0-0-0-0-0-0-|
|-5-5-5-5-5-5-5-5-4-4-4-4-4-4-4-4-|
|-4-4-4-4-4-4-4-4-3-3-3-3-3-3-3-3-| times about 4
|-2-2-2-2-2-2-2-2-2-2-2-2-2-2-2-2-|
|---------------------------------|
|---------------------------------|

main riff

|-----------------------|
|-----------------------|
|-----------------------|times loads
|-----------------------|
|-----2-22p0-----1-11p0-|by the way you DONT play at frets 11 and 22
|-0-03------0-003-------|

bridge 1

|-----------------------------------|
|-----------------------------------|
|-----------------------------------|
|-5-5-5-5-5-5-5-5-4-4-4-4-3-3-3-3-2-|
|-5-5-5-5-5-5-5-5-4-4-4-4-3-3-3-3-2-|
|-3-3-3-3-3-3-3-3-2-2-2-2-1-1-1-1-0-|

back to main riff

bridge 1

bridge 2

|---------------------|
|---------------------|
|-------------3-3-3-3-| times 2
|-2-2-0-2-222-3-3-3-3-|
|-2-2-2-2-222-1-1-1-1-|
|-0-0-3-0-000---------|

chorous

|------------------|--------------------------------|
|----times 4-------|--------times about 4-----------|
|------------------|--------------------------------|
|-5-/-2--5-8-8-8-8-|2-2-2-2-2-2-2-2-8-8-8-8-8-8-8-8-|
|-5-/-2--5-8-8-8-8-|2-2-2-2-2-2-2-2-8-8-8-8-8-8-8-8-|
|-3-/-0--3-6-6-6-6-|0-0-0-0-0-0-0-0-6-6-6-6-6-6-6-6-|

bridge 1

main riff 

bridge 1

chorous

then this bit if you want to play it with the bass

|--------------|
|--------------|
|--------------|
|--------------|
|-2--2222-2222-|
|-0--0030-0030-|

|----------------------------------|
|-99999999888888888999999988888888-|
|-99999999888888888999999988888888-|
|-99999999888888888999999988888888-|
|----------------------------------|
|----------------------------------|

bridge 1

bridge 2 times about 4

and it sounds good if you end on:

|33333333222211110-!-|
|33333333222211110-!-|
|44444444333322221-!-|
|55555555444433332-!-|
|55555555444433332-!-|
|33333333222211110-!-|
            
Hard to play? Try these video lessons and learn fast. | Correct




comments powered by Disqus
↑ Back to top | Tablatures and chords are parodies/interpretations of the original songs. You may use it for private study, scholarship, research or language learning purposes only