» » »

Eighteen Visions, Vanity Tabs (ver.1)

Artists:  A B C D E F G H I J K L M N O P Q R S T U V W X Y Z # 

Vanity Tabs (ver.1)

Eighteen Visions Tabs
 Rating:
3.4/5 (5 votes)
Vanity lessons Tabs too difficult? Try these video lessons and learn fast
                Band- Eighteen Visions
Song- vanity

B F# B E G# C#
. -> p.m.
/ -> slide
* -> Art. Harm.
^ -> bend

Intro/Verse
-----------------------------------------------------------------------|
-----------------------------------------------------------------------|
-----------------------------------------------------------------------|
-----------------------------------------------------------------------|
--0-------0--0--0----2*----2-------------------------------------------|
--0--0-0--0--0--0--0---3-2---2*----------------------------------------|
     . .

Chorus   (chords)
-----------------------------------------------------------------------|
-----------------------------------------------------------------------|
--7-----9-----10----5--------------------------------------------------|
--5-----7-----8-----3--------------------------------------------------|
--5-----7-----8-----3--------------------------------------------------|
-----------------------------------------------------------------------|

Riff A
-----------------------------------------------------------------------|
-----------------------------------------------------------------------|
----------------------------------5-5-5-5------------------------------|
-----------------------------------------------------------------------|
--0-----0-------0--0-------0-0----3-3-3-3------------------------------|
--0--0--0--0-0--0--0---00--0-0-----------------------------------------|
     .     . .         ..

Fill (chords)
-----------------------------------------------------------------------|
-----------------------------------------------------------------------|
--7--9--7--9--11-12----------------------------------------------------|
-----------------------------------------------------------------------|
--5--7--5--7--9--10----------------------------------------------------|
-----------------------------------------------------------------------|

Riff B (if u should....) (chords)
-----------------------------------------------------------------------|
-----------------------------------------------------------------------|
--11-9--11-9---7----5--------------------------------------------------|
-----------------------------------------------------------------------|
--8--7--8--7---5----3--------------------------------------------------|
-----------------------------------------------------------------------|

Riff C
---------------------------------------------|-------------------------|
---------------------------------------------|-------------------------|
--------------------------------7778885557778|555888555777888111111888-|
---------------------------------------------|-------------------------|
--0-----------0--0-----------0--5556663335556|5556663335556668-8-8-666-|
--0--0-0--00--0--0--0-0--00--0-----------------------------------------|
     . .  ..        . .  ..

Breakdown
-------------------------|---------------------------------------------|
-------------------------|---------------------------------------------|
-------------------------|---------------------------------------------|
-----------------------x2|---------------------------------------------|
----------0--------1-0-1-|--2*3-2*3^*----------------------------------|
-//////-0-0---0-0--1-0-1-|---------------------------------------------|
            
Submit corrections

comments powered by Disqus
↑ Back to top | Eighteen Visions Tabs for Vanity. Lyrics for acoustic guitar and electric guitar. Tablatures and chords are parodies/interpretations of the original songs. You may use it for private study, scholarship, research or language learning purposes only