» » »

Eighteen Visions, Tonightless Tabs (ver.3)

Artists:  A B C D E F G H I J K L M N O P Q R S T U V W X Y Z # 

Tonightless Tabs (ver.3)

Eighteen Visions Tabs
 Rating:
3.4/5 (9 votes)
Tonightless lessons Tabs too difficult? Try these video lessons and learn fast
1
                this song is pretty basic and what-not but yeah. listen to the city for the rhythm or somethng. But enjoy!

~ = slide

Intro - Acoustic/Undistorted (doesn't matter)repeats 2x

|-----3---------3--------3----------3---------------------------------------|
|-----3---------3--------3----------3---------------------------------------|
|---------------------------------------------------------------------------|
|---------------------------------------------------------------------------|
|-------------------2-2--------3-3------------------------------------------|
|3-3-------2-2------0-0-----------------------------------------------------|


Intro - Electric/distorted (part 1)

|---3-----3-----------------------------------------------------------------|
|---3-----3-----------------------------------------------------------------|
|-------------5   9  11   9   6---------------------------------------------|
|-------------x ~ x ~ x ~ x ~ x---------------------------------------------|
|-------------3   7   9   7   4---------------------------------------------|
|3-----2--------------------------------------------------------------------|


Intro - Electric/distorted (part 2)

|---3-----3-----------------------------------------------------------------|
|---3-----3-----------------------------------------------------------------|
|------------7   9   13   11  8---------------------------------------------|
|------------x ~ x ~ x  ~ x ~ x---------------------------------------------|
|------------5   7   11   9   6---------------------------------------------|
|3-----2--------------------------------------------------------------------|


Verse 1 & 2 electric/distorted

|------------|---------|
|------------|---------|
|------------|---------|
|5--4--2-----|5--4--2--|
|5--4--2-----|5--4--2--|the second part is a mix of pm and open
|3--2--0-----|3--2--0--|


Chorus - electric/distorted  (repeats 4x)

|---------------------------------------------------------------------------|
|---------------------------------------------------------------------------|
|2--5-----7-----------------------------------------------------------------|
|2--5--5--7-----------------------------------------------------------------|
|0--3--5--5-----------------------------------------------------------------|
|------3--------------------------------------------------------------------|

Verse 2 = verse 1
chorus is repeated

final chorus - electric/distorted = 3 notes from the verse

|
            
Submit corrections

comments powered by Disqus
↑ Back to top | Eighteen Visions Tabs for Tonightless. Lyrics for acoustic guitar and electric guitar. 1 Tablatures and chords are parodies/interpretations of the original songs. You may use it for private study, scholarship, research or language learning purposes only