>
 >
Revolutionizing The Sound Of Music

Revolutionizing The Sound Of Music Guitar Tabs

Eighteen Visions - Revolutionizing The Sound Of Music chords, tabs, tablatures, lyrics

Guitar lessons | Add/correct | Request | Top 50 tabs Artists:  A B C D E F G H I J K L M N O P Q R S T U V W X Y Z 0-9

Revolutionizing The Sound Of Music Guitar Tabs – Eighteen Visions

CD, Sheet music, Poster

Do you like Revolutionizing The Sound Of Music? Share with your friends now
TabsTabs v2
Band- Eighteen Visions
Song- Revolutionizing The Sound Of Music

Tuning: Drop B:  B,G,D,A,E,B 

 Key: * - palm mute
      \ - slide up
      / - slide down
      ~ - vibrato
      ^ - bend
      ! - pinch harmonic



    Intro	 1x  Riff A 		   4x
 B ----------------|-------------------------|
 E -0-------0----0-|-----------------------0-|
 A -3-------5----6-|-----------------------3-|
 D ----------------|-------------------------|
 G ----------------|-2-1-0-0-1-3-1-0-0-000---|
 B ----------------|-2-1-0-0-1-3-1-0-0-000---|
				   * * ***	

    Riff B							1x
 B ---------------------------------|-----------------------------|
 E -----0-----0-----0-----0---------|-----0-----0-----------------|
 A -----3-----3-----3-----3---------|-----3-----3-----------------|
 D ---------------------------------|-----------------------------|
 G -000---000---000---000---2-1-0-2-|-000---000---2-1-0-2-2-1-0-2-|
 B -000---000---000---000---2-1-0-2-|-000---000---2-1-0-2-2-1-0-2-|
    ***	  ***	***   ***	      ***   ***			

    Riff C  		    				  2x
 B ---------------------------|-----------------------------|
 E -----0-----0-----0---------|-----0-----0-----------------|
 A -----3-----3-----3---------|-----3-----3-----------------|
 D ---------------------------|-----------------------------|
 G -0-0---0-0---0-0---2-1-0-2-|-0-0---0-0---2-1-0-2-2-1-0-2-|
 B -0-0---0-0---0-0---2-1-0-2-|-0-0---0-0---2-1-0-2-2-1-0-2-|  
    * *   * *   * *             * *   * *

    Riff D     1x 	
 B --------------| 
 E --------------|
 A --------------|
 D -------3------|
 G -3-2-----5-4~-|
 B -----5--------| 


    Riff A 	 4x


    Riff E			    1X	
 B -----------------------------------|
 E -0-0-0-0-0-0-0-0-0-0-0-------------|
 A -5-5-5-5-5-5-5-5-5-5-5-------------|
 D --------------------------\12~-11~-|
 G -----------------------0-----------|
 B -----------------------0-----------|
			       !   !	

    Riff F	2x

							 	       2x	
 B --------------------------------------|-------------------------------|
 E --------------------------------------|-------------------------------|
 A --------------------------------------|-------------------------------|
 D -------------------------666666666666-|-------------------------------|
 G -2-0-0-2-0-2-1-0-0-0-2\3-444444444444-|-2-0-0-2-0-2-1-000-2\3-000-2\3-|
 B -2-0-0-2-0-2-1-0-0-0------------------|-2-0-0-2-0-2-1-000-----000-----|


    Riff G			   4x
 B ----------------------------------|
 E ----------------------------------|
 A ----------------------------------|
 D ----------------------------------|
 G -0--000-000-000-2-1-0-1-0-2-0h4p3-|
 B -0--000-000-000-2-1-0-1-0-2-0h4p3-|
    *  *** *** ***	
 

    Riff F	  1 1/2x	


    Riff H			    3x  	  	
 B -----------------|-----------------|
 A -----3-----3---3-|-----------------|
 D -----------------|-----------------|
 G -0-0---0-0---0---|-0-0-0-0-0-0-0-0-|
 B -0-0---0-0---0---|-0-0-0-0-0-0-0-0-|
    * *   * *   *     * * * * * * * *			


    Riff I 	   		     1x	       	
 B ------------------|-----------------|
 E ------------------|-----0-----0---0-|
 A ------------------|-----3-----3---3-|
 D ------------------|-----------------|
 G -0000000000000000-|-0-0---0-0---0---|
 B -0000000000000000-|-0-0---0-0---0---|
    ****************   * *   * *   *	


  Riff H      1\2x


    Fill A 8x
 B ----------|
 E ----------|
 A ----------|
 D --6\12----|
 G --6\12-0--|
 B --0----0--|
 

    Riff J	    9x	Fill B	       	    1x	
 B -------------------|-----------------------|
 E -------------------|-----------------------|
 A -------------------|-----------------------|
 D -------------------|-----------------------|
 G -3\4-5\6-3\4-0-2\3-|-1\2-3\4--666666666666-|
 B -3\4-5\6-3\4-0-2\3-|-1\2-3\4---------------|

 
    Riff K	      3x  Fill C	      1x	
 B ---------------------|-----------------------|
 E ---------------------|-----------------------|
 A ---------------------|-----------------------|
 D ---------------------|-----------------------|
 G -2\3-0h3-5/6-2\3-5\6-|--2\3-0h3-666666666666-|
 B -2\3-0h3-5/6-2\3-5\6-|--2\3-0h3--------------|
    * * * * * * * * * *    * * * *

 
    Riff J  	    3x
    Fill B	    1x	
    Riff K	    3x
    Fill C	    1x	
    Riff K	    3x
    Fill B	    1x


    Fill D     1x	
 B --------------|
 E --------------|
 A --------------|
 D -777777777777-|
 G -666666666666-|
 B --------------|

    Riff L				    1x  
 B ---------------------|---------------------|
 E ---------------------|---------------------|
 A ---------------------|---------------------|
 D -444-4-----444-4-----|-444-----4\3-3-3\4-4-|
 G -222-2-0-0-222-2-0-0-|-222-0-0-2\1-1-1\2-2-|
 B -000-0-0-0-000-0-0-0-|-000-0-0-------------|
          * *       * *       * *

  Riff D	1x


    Riff M		    1x	Riff N	     		     2x	
 B ---------------------------|----------------|---------------|
 E -----0-----0-----0---------|----------------|---------------|
 A -----5-----5-----5---------|----------------|---------------|
 D ---------------------------|----------------|---------------|
 G -0-0---0-0---0-0---2-1-0-2-|----3-2-------5-|-0-5-0-1\2-2\3-|
 B -0-0---0-0---0-0---2-1-0-2-|0h2-----3-2-0---|-0-5-0-1\2-2\3-|
    * *   * *   * *	       * * ! ! ! ! * !	 *   *

    Riff L      1x
    Riff D      1x 	
    Riff N	1x
    Fill E      3x
    1/2 Riff N	2x
    Riff N      5x	       	
    Riff L      1x
    Riff D      2x





Comments


Popular Eighteen Visions tabs & chords
I Let Go Bass Tabs
Love In Autumn Bass Tabs
Said And Done Chords
Dead Rose Tabs
Guilty Pleasures Tabs
I Let Go Tabs
Lost In A Dream Tabs
Obsession Tabs
Raping, Laughing, Tasting, Temptation Tabs
You Broke Like Glass Tabs


Song lyrics



↑ Back to top | Tablatures and chords are parodies/interpretations of the original songs. You may use it for private study, scholarship, research or language learning purposes only
© 2014 AZChords.com Contact us | Privacy policy | DMCA | Add/correct tabs | Request tabs | Top 50 tabs