>
 >
Backfire 1

Backfire 1 Guitar Tabs

Egypt Central - Backfire 1 chords, tabs, tablatures, lyrics

Guitar lessons | Add/correct | Request | Top 50 tabs Artists:  A B C D E F G H I J K L M N O P Q R S T U V W X Y Z 0-9

Backfire 1 Guitar Tabs – Egypt Central

CD, Sheet music, Poster

Do you like Backfire 1? Share with your friends now
TabsTabs v2Tabs v3
----------------------------------------------------------------------------
                                 Backfire
                               Egypt Central
----------------------------------------------------------------------------

I was not suppose to make a tab for this song, but there have been a lot of requests for 
song, and a perfect acoustic piece. Enjoy!


Username: dkm817 (same on X box live)

Guitar 1 Acoustic (D# G# C# F# A# D#)
Guitar 2 Acoustic (D# G# C# F# A# D#)
Guitar 3 Rhythmic (C  G  C  F  A  D )

Tab Guide...

===================================================================
(end of measures)

===================================================================
===================================================================
(end of parts)

===================================================================
===================================================================
===================================================================
(end of song)

(If there is a “continued” it is because the numbers could not
fit on 1 line.)


Intro
(Long rest)

Guitar 1 (x2)
D#-0~~-0-0-0-0-0~~-0-0-0-0-0-0-0-0-0~~-0-0-0-0-0~~-0-0-0-0-0-0-0-0-|
A#-0~~-0-0-0-0-0~~-0-0-0-0-0-0-0-0-0~~-0-0-0-0-0~~-0-0-0-0-0-0-0-0-|
F#-6~~-6-6-6-6-6~~-6-6-6-6-6-6-6-6-2~~-2-2-2-2-2~~-2-2-2-2-2-2-2-2-|
C#-6~~-6-6-6-6-6~~-6-6-6-6-6-6-6-6-2~~-2-2-2-2-2~~-2-2-2-2-2-2-2-2-|
G#-4~~-4-4-4-4-4~~-4-4-4-4-4-4-4-4-0~~-0-0-0-0-0~~-0-0-0-0-0-0-0-0-|
D#-----------------------------------------------------------------|
Acc.     . .   ^     . .   . .     .     . .   ^     . .   . .

===================================================================
===================================================================


Verse

Guitar 1
D#-------0-----0-~~~-0~~~~---------------0~~~~~~~~~~~~~~~~~~~------|
A#-------0---0-0~~-0~~~~~~-------------------0~~~~~~~~~~~~~~~------|
F#-----6-6-6-6-6~~~~~~~~~~-6~~-x-x-2~~~~~~~~~~~~~~~~~~~~~~~~~~-x-x-|
C#-----6-6-6-6-6~~~~~~~~~~-6~~-x-x-2~~~~~~~~~~-2~~~~~~~~~~~~~~-x-x-|
G#-4~~-4-4-4-4-4~~~~~~~~~~-4~~-x-x-0~~~~~~~~~~~~~~~~~~~~~~~~~~-x-x-|
D#-----------------------------------------------------------------|
Acc.     ^   . .                   .

===================================================================

Guitar 1
D#-0-----0-----0-~~~-0~~~~---------------------0~~-----------------|
A#-0-----0---0-0~~-0~~~~~~---------------------0~~-----------------|
F#-6-6-6-6-6-6-6~~~~~~~~~~-6~~-x-x-2~~-2-2-2-2-2---------------x-x-|
C#-6-6-6-6-6-6-6~~~~~~~~~~-6~~-x-x-2~~-2-2-2-2-2~~-------------x-x-|
G#-4-4-4-4-4-4-4~~~~~~~~~~-4~~-x-x-0~~-0-0-0-0-0~~-------------x-x-|
D#-----------------------------------------------------------------|
Acc.     .   . .                   .     . .   ^

===================================================================

Guitar 1
D#-0-0-0-0-0-0-0-0-0-0-0-0-0-0-0-0-0-0-0-0-0-0-0-0-0-0-0-0-0-0-0-0-|
A#-0-0-0-0-0-0-0-0-0-0-0-0-0-0-0-0-0-0-0-0-0-0-0-0-0-0-0-0-0-0-0-0-|
F#-6-6-6-6-6-6-6-6-6-6-6-6-6-6-6-6-4-4-4-4-4-4-4-4-4-4-4-4-4-4-4-4-|
C#-6-6-6-6-6-6-6-6-6-6-6-6-6-6-6-6-4-4-4-4-4-4-4-4-4-4-4-4-4-4-4-4-|
G#-4-4-4-4-4-4-4-4-4-4-4-4-4-4-4-4-2-2-2-2-2-2-2-2-2-2-2-2-2-2-2-2-|
D#-----------------------------------------------------------------|
Acc.     ^     .     ^     .       .     ^     .     ^     .     ^

===================================================================

Guitar 1
D#-0-0-0-0-0-0-0-0-0-0-0-0-0-0-0-0-0-0-0-0-0-0-0-0-0-0-0-0-0-0-0-0-|
A#-0-0-0-0-0-0-0-0-0-0-0-0-0-0-0-0-0-0-0-0-0-0-0-0-0-0-0-0-0-0-0-0-|
F#-2-2-2-2-2-2-2-2-2-2-2-2-2-2-2-2-2-2-2-2-2-2-2-2-2-2-2-2-2-2-2-2-|
C#-2-2-2-2-2-2-2-2-2-2-2-2-2-2-2-2-2-2-2-2-2-2-2-2-2-2-2-2-2-2-2-2-|
G#-0-0-0-0-0-0-0-0-0-0-0-0-0-0-0-0-0-0-0-0-0-0-0-0-0-0-0-0-0-0-0-0-|
D#-----------------------------------------------------------------|
Acc. ^   ^     .     ^     .       .     ^     .     ^     .

===================================================================
===================================================================


Pre Chorus

Guitar 1
D#-0~~~~~~~~~~~~~~~~~~~~~~---------|
A#-0~~~~~~~~~~~~~~~~~~~~~~---------|
F#-2~~~~~~~~~~~~~~~~~~~~~~-x-x-----|
C#-2~~~~~~~~~~~~~~~~~~~~~~-x-x-----|
G#-0~~~~~~~~~~~~~~~~~~~~~~-x-x-----|
D#---------------------------------|

Guitar 2
D#-0~~~~-0~~~~-----2p0-2/4~~~~~~~~-|
A#---2~~~~-2~~-5\2-2p0-4/5~~~~~~~~-|
F#-----4~~~~-4-6\4-----------------|
C#---------------------------------|
G#---------------------------------|
D#---------------------------------|

===================================================================
===================================================================


Chorus 1

Guitar 1
D#-0-0-0-0-0-0-0-0-0-0-0-0-0-0-0-0-0-0-0-0-0-0-0-0-0-0-0-0-0-0-0-0-|
A#-0-0-0-0-0-0-0-0-0-0-0-0-0-0-0-0-0-0-0-0-0-0-0-0-0-0-0-0-0-0-0-0-|
F#-6-6-6-6-6-6-6-6-6-6-6-6-6-6-6-6-4-4-4-4-4-4-4-4-4-4-4-4-4-4-4-4-|
C#-6-6-6-6-6-6-6-6-6-6-6-6-6-6-6-6-4-4-4-4-4-4-4-4-4-4-4-4-4-4-4-4-|
G#-4-4-4-4-4-4-4-4-4-4-4-4-4-4-4-4-2-2-2-2-2-2-2-2-2-2-2-2-2-2-2-2-|
D#-----------------------------------------------------------------|
Acc.     ^     .     ^     .       .     ^     .     ^     .

===================================================================

Guitar 1
D#-0-0-0-0-0-0-0-0-0-0-0-0-0-0-0-0-0-0-0-0-0-0-0-0-0-0-0-0-0-0-0-0-|
A#-0-0-0-0-0-0-0-0-0-0-0-0-0-0-0-0-0-0-0-0-0-0-0-0-0-0-0-0-0-0-0-0-|
F#-2-2-2-2-2-2-2-2-2-2-2-2-2-2-2-2-2-2-2-2-2-2-2-2-4-4-4-4-4-4-4-4-|
C#-2-2-2-2-2-2-2-2-2-2-2-2-2-2-2-2-2-2-2-2-2-2-2-2-4-4-4-4-4-4-4-4-|
G#-0-0-0-0-0-0-0-0-0-0-0-0-0-0-0-0-0-0-0-0-0-0-0-0-2-2-2-2-2-2-2-2-|
D#-----------------------------------------------------------------|
Acc.     ^     .     ^     .       .     ^     .     ^     .   . .

===================================================================

Guitar 1
D#-0-0-0-0-0-0-0-0-0-0-0-0-0-0-0-0-0-0-0-0-0-0-0-0-0-0-0-0-0-0-0-0-|
A#-0-0-0-0-0-0-0-0-0-0-0-0-0-0-0-0-0-0-0-0-0-0-0-0-0-0-0-0-0-0-0-0-|
F#-6-6-6-6-6-6-6-6-6-6-6-6-6-6-6-6-4-4-4-4-4-4-4-4-4-4-4-4-4-4-4-4-|
C#-6-6-6-6-6-6-6-6-6-6-6-6-6-6-6-6-4-4-4-4-4-4-4-4-4-4-4-4-4-4-4-4-|
G#-4-4-4-4-4-4-4-4-4-4-4-4-4-4-4-4-2-2-2-2-2-2-2-2-2-2-2-2-2-2-2-2-|
D#-----------------------------------------------------------------|
Acc.     ^     .     ^     .       .     ^     .     ^     .

===================================================================

Guitar 1
D#-0-0-0-0-0-0-0-0-0-0-0-0-0-0-0-0-0-0-0-0-0-0-0-0-0-0-0-0-0~~~~-0-|
A#-0-0-0-0-0-0-0-0-0-0-0-0-0-0-0-0-0-0-0-0-0-0-0-0-0-0-0-0-0~~-0~~-|
F#-2-2-2-2-2-2-2-2-2-2-2-2-2-2-2-2-2-2-2-2-2-2-2-2-4-4-4-4-4~~~~~~-|
C#-2-2-2-2-2-2-2-2-2-2-2-2-2-2-2-2-2-2-2-2-2-2-2-2-4-4-4-4-4~~~~~~-|
G#-0-0-0-0-0-0-0-0-0-0-0-0-0-0-0-0-0-0-0-0-0-0-0-0-2-2-2-2-2~~~~~~-|
D#-----------------------------------------------------------------|
Acc.     ^     .     ^     .       .     ^     .     ^     .

===================================================================
===================================================================


Verse

Guitar 1 (x2)
D#-------0-----0~~~~-0~~~~---------------0-----0~~~~-0~~~~---------|
A#-------0---0-0~~-0~~~~~~---------------0---0-0~~-0~~~~~~---------|
F#-6~~-6-6-6-6-6~~~~~~~~~~-6~~-x-x-2~~-2-2-2-2-2~~~~~~~~~~-2~~-x-x-|
C#-6~~-6-6-6-6-6~~~~~~~~~~-6~~-x-x-2~~-2-2-2-2-2~~~~~~~~~~-2~~-x-x-|
G#-4~~-4-4-4-4-4~~~~~~~~~~-4~~-x-x-0~~-0-0-0-0-0~~~~~~~~~~-0~~-x-x-|
D#-----------------------------------------------------------------|
Acc.     ^   . .                   .     ^   . .

===================================================================

Guitar 1
D#-0-0-0-0-0-0-0-0-0-0-0-0-0-0-0-0-0-0-0-0-0-0-0-0-0-0-0-0-0-0-0-0-|
A#-0-0-0-0-0-0-0-0-0-0-0-0-0-0-0-0-0-0-0-0-0-0-0-0-0-0-0-0-0-0-0-0-|
F#-6-6-6-6-6-6-6-6-6-6-6-6-6-6-6-6-4-4-4-4-4-4-4-4-4-4-4-4-4-4-4-4-|
C#-6-6-6-6-6-6-6-6-6-6-6-6-6-6-6-6-4-4-4-4-4-4-4-4-4-4-4-4-4-4-4-4-|
G#-4-4-4-4-4-4-4-4-4-4-4-4-4-4-4-4-2-2-2-2-2-2-2-2-2-2-2-2-2-2-2-2-|
D#-----------------------------------------------------------------|
Acc.     ^     .     ^     .       .     ^     .     ^     .     ^

===================================================================

Guitar 1
D#-0-0-0-0-0-0-0-0-0-0-0-0-0-0-0-0-0-0-0-0-0-0-0-0-0-0-0-0-0-0-0-0-|
A#-0-0-0-0-0-0-0-0-0-0-0-0-0-0-0-0-0-0-0-0-0-0-0-0-0-0-0-0-0-0-0-0-|
F#-2-2-2-2-2-2-2-2-2-2-2-2-2-2-2-2-2-2-2-2-2-2-2-2-2-2-2-2-2-2-2-2-|
C#-2-2-2-2-2-2-2-2-2-2-2-2-2-2-2-2-2-2-2-2-2-2-2-2-2-2-2-2-2-2-2-2-|
G#-0-0-0-0-0-0-0-0-0-0-0-0-0-0-0-0-0-0-0-0-0-0-0-0-0-0-0-0-0-0-0-0-|
D#-----------------------------------------------------------------|
Acc. ^   ^     .     ^     .       .     ^     .     ^     .

===================================================================
===================================================================


Pre Chorus

Guitar 1
D#-0~~~~~~~~~~~~~~~~~~~~~~---------|
A#-0~~~~~~~~~~~~~~~~~~~~~~---------|
F#-2~~~~~~~~~~~~~~~~~~~~~~-x-x-----|
C#-2~~~~~~~~~~~~~~~~~~~~~~-x-x-----|
G#-0~~~~~~~~~~~~~~~~~~~~~~-x-x-----|
D#---------------------------------|

Guitar 2
D#-0~~~~-0~~~~-----2p0-2/4~~~~~~~~-|
A#---2~~~~-2~~-5\2-2p0-4/5~~~~~~~~-|
F#-----4~~~~-4-6\4-----------------|
C#---------------------------------|
G#---------------------------------|
D#---------------------------------|

===================================================================
===================================================================


Chorus 1

Guitar 1
D#-0-0-0-0-0-0-0-0-0-0-0-0-0-0-0-0-0-0-0-0-0-0-0-0-0-0-0-0-0-0-0-0-|
A#-0-0-0-0-0-0-0-0-0-0-0-0-0-0-0-0-0-0-0-0-0-0-0-0-0-0-0-0-0-0-0-0-|
F#-6-6-6-6-6-6-6-6-6-6-6-6-6-6-6-6-4-4-4-4-4-4-4-4-4-4-4-4-4-4-4-4-|
C#-6-6-6-6-6-6-6-6-6-6-6-6-6-6-6-6-4-4-4-4-4-4-4-4-4-4-4-4-4-4-4-4-|
G#-4-4-4-4-4-4-4-4-4-4-4-4-4-4-4-4-2-2-2-2-2-2-2-2-2-2-2-2-2-2-2-2-|
D#-----------------------------------------------------------------|
Acc.     ^     .     ^     .       .     ^     .     ^     .

===================================================================

Guitar 1
D#-0-0-0-0-0-0-0-0-0-0-0-0-0-0-0-0-0-0-0-0-0-0-0-0-0-0-0-0-0-0-0-0-|
A#-0-0-0-0-0-0-0-0-0-0-0-0-0-0-0-0-0-0-0-0-0-0-0-0-0-0-0-0-0-0-0-0-|
F#-2-2-2-2-2-2-2-2-2-2-2-2-2-2-2-2-2-2-2-2-2-2-2-2-4-4-4-4-4-4-4-4-|
C#-2-2-2-2-2-2-2-2-2-2-2-2-2-2-2-2-2-2-2-2-2-2-2-2-4-4-4-4-4-4-4-4-|
G#-0-0-0-0-0-0-0-0-0-0-0-0-0-0-0-0-0-0-0-0-0-0-0-0-2-2-2-2-2-2-2-2-|
D#-----------------------------------------------------------------|
Acc.     ^     .     ^     .       .     ^     .     ^     .   . .

===================================================================

Guitar 1
D#-0-0-0-0-0-0-0-0-0-0-0-0-0-0-0-0-0-0-0-0-0-0-0-0-0-0-0-0-0-0-0-0-|
A#-0-0-0-0-0-0-0-0-0-0-0-0-0-0-0-0-0-0-0-0-0-0-0-0-0-0-0-0-0-0-0-0-|
F#-6-6-6-6-6-6-6-6-6-6-6-6-6-6-6-6-4-4-4-4-4-4-4-4-4-4-4-4-4-4-4-4-|
C#-6-6-6-6-6-6-6-6-6-6-6-6-6-6-6-6-4-4-4-4-4-4-4-4-4-4-4-4-4-4-4-4-|
G#-4-4-4-4-4-4-4-4-4-4-4-4-4-4-4-4-2-2-2-2-2-2-2-2-2-2-2-2-2-2-2-2-|
D#-----------------------------------------------------------------|
Acc.     ^     .     ^     .       .     ^     .     ^     .

===================================================================

Guitar 1
D#-0-0-0-0-0-0-0-0-0-0-0-0-0-0-0-0-0-0-0-0-0-0-0-0-0-0-0-0-0~~~~-0-|
A#-0-0-0-0-0-0-0-0-0-0-0-0-0-0-0-0-0-0-0-0-0-0-0-0-0-0-0-0-0~~-0~~-|
F#-2-2-2-2-2-2-2-2-2-2-2-2-2-2-2-2-2-2-2-2-2-2-2-2-4-4-4-4-4~~~~~~-|
C#-2-2-2-2-2-2-2-2-2-2-2-2-2-2-2-2-2-2-2-2-2-2-2-2-4-4-4-4-4~~~~~~-|
G#-0-0-0-0-0-0-0-0-0-0-0-0-0-0-0-0-0-0-0-0-0-0-0-0-2-2-2-2-2~~~~~~-|
D#-----------------------------------------------------------------|
Acc.     ^     .     ^     .       .     ^     .     ^     .

===================================================================
===================================================================


Interlude

Guitar 1 (x2)
D#---------0~~-0-0-------0-0---0~~~~-0~~~~-0~~~~-0~~~~-0~~-0~~-----|
A#---------0~~-0-0-------0-0---0~~~~~~-0~~~~-0~~~~-0~~~~-0-0~~-----|
F#-6~~-6-6-6~~-6-6-2~~-2-2-2-2-4~~~~~~~~-4~~~~-4~~~~-4~~~~-4~~-x-x-|
C#-6~~-6-6-6~~-6-6-2~~-2-2-2-2-4~~~~~~~~~~~~~~~~~~~~~~~~~~-4~~-x-x-|
G#-4~~-4-4-4~~-4-4-0~~-0-0-0-0-2~~~~~~~~~~~~~~~~~~~~~~~~~~-2~~-x-x-|
D#-----------------------------------------------------------------|
Acc.       ^       .     ^ .   .

===================================================================

Guitar 1
D#---------0~~-0-0-------0-0---0~~---0-0---0~~---------------------|
A#---------0~~-0-0-------0-0---0~~---0-0---0~~---------------------|
F#-6~~-6-6-6~~-6-6-2~~-2-2-2-2-4~~-4-4-4-4-4~~-4-4-4~~-4~~-4~~-4-4-|
C#-6~~-6-6-6~~-6-6-2~~-2-2-2-2-4~~-4-4-4-4-4~~-4-4-6~~-6~~-6~~-6-6-|
G#-4~~-4-4-4~~-4-4-0~~-0-0-0-0-2~~-2-2-2-2-2~~-2-2-6~~-6~~-6~~-6-6-|
D#-------------------------------------------------4~~-4~~-4~~-4-4-|
Acc.       ^       .     ^ .   .     . .   ^       .   .   .

===================================================================

Guitar 1 (Crescendo)
D#-0~~-0-0-0-0-0-0-0-0-0-0-0-0-0-0-0-0-0-0-0-0-0-0-0-0-0-0-0-0-0-0-|
A#-0~~-0-0-0-0-0-0-0-0-0-0-0-0-0-0-0-0-0-0-0-0-0-0-0-0-0-0-0-0-0-0-|
F#-2~~-2-2-2-2-2-2-2-2-2-2-2-2-2-2-2-2-2-2-2-2-2-2-2-2-2-2-2-2-2-2-|
C#-2~~-2-2-2-2-2-2-2-2-2-2-2-2-2-2-2-2-2-2-2-2-2-2-2-2-2-2-2-2-2-2-|
G#-0~~-0-0-0-0-0-0-0-0-0-0-0-0-0-0-0-0-0-0-0-0-0-0-0-0-0-0-0-0-0-0-|
D#-----------------------------------------------------------------|

===================================================================

Guitar 1
D#-0-0-0-0-0-0-0-0-0-0-0-0-0-0-0-0-0-0-0-0-0-0-0-0-0-0-0-0-0-0-0-0-|
A#-0-0-0-0-0-0-0-0-0-0-0-0-0-0-0-0-0-0-0-0-0-0-0-0-0-0-0-0-0-0-0-0-|
F#-4-4-4-4-4-4-4-4-4-4-4-4-4-4-4-4-4-4-4-4-4-4-4-4-4-4-4-4-4-4-4-4-|
C#-4-4-4-4-4-4-4-4-4-4-4-4-4-4-4-4-4-4-4-4-4-4-4-4-4-4-4-4-4-4-4-4-|
G#-2-2-2-2-2-2-2-2-2-2-2-2-2-2-2-2-2-2-2-2-2-2-2-2-2-2-2-2-2-2-2-2-|
D#-----------------------------------------------------------------|

Guitar 3
D------------------------------------------------------------------|
A------------------------------------------------------------------|
F--5-5-5-5-5-5-5-5-5-5-5-5-5-5-5-5-5-5-5-5-5-5-5-5-5-5-5-5-5-5-5-5-|
C--5-5-5-5-5-5-5-5-5-5-5-5-5-5-5-5-5-5-5-5-5-5-5-5-5-5-5-5-5-5-5-5-|
G--3-3-3-3-3-3-3-3-3-3-3-3-3-3-3-3-3-3-3-3-3-3-3-3-3-3-3-3-3-3-3-3-|
C------------------------------------------------------------------|
pm . . . . . . . . . . . . . . . .

===================================================================
===================================================================


Bridge

Guitar 1
D#-------0-----0~~~~-0~~~~---------0-0-0-0-0-0-0-0-0-0-0-0-0-0-0-0-|
A#-------0---0-0~~-0~~~~~~---------0-0-0-0-0-0-0-0-0-0-0-0-0-0-0-0-|
F#-6~~-6-6-6-6-6~~~~~~~~~~-6~~-x-x-4-4-4-4-4-4-4-4-4-4-4-4-4-4-4-4-|
C#-6~~-6-6-6-6-6~~~~~~~~~~-6~~-x-x-4-4-4-4-4-4-4-4-4-4-4-4-4-4-4-4-|
G#-4~~-4-4-4-4-4~~~~~~~~~~-4~~-x-x-2-2-2-2-2-2-2-2-2-2-2-2-2-2-2-2-|
D#-----------------------------------------------------------------|
Acc.     ^   . .                   .     ^     .     ^     .

===================================================================

Guitar 1
D#-0~~-0-0-0~~-0~~~~~~~~~~~~~~~~~~---------------------------------|
A#-0~~-0-0-0~~-0~~~~~~~~~~~~~~~~~~---------------------------------|
F#-2~~-2-2-2~~-2~~~~~~~~~~~~~~~~~~---------------------------------|
C#-2~~-2-2-2~~-2~~~~~~~~~~~~~~~~~~---------------------------------|
G#-0~~-0-0-0~~-0~~~~~~~~~~~~~~~~~~---------------------------------|
D#-----------------------------------------------------------------|
Acc.     . .

===================================================================
===================================================================


Chorus 2

Guitar 1
D#-0-0-0-0-0-0-0-0-0-0-0-0-0-0-0-0-0-0-0-0-0-0-0-0-0-0-0-0-0-0-0-0-|
A#-0-0-0-0-0-0-0-0-0-0-0-0-0-0-0-0-0-0-0-0-0-0-0-0-0-0-0-0-0-0-0-0-|
F#-6-6-6-6-6-6-6-6-6-6-6-6-6-6-6-6-4-4-4-4-4-4-4-4-4-4-4-4-4-4-4-4-|
C#-6-6-6-6-6-6-6-6-6-6-6-6-6-6-6-6-4-4-4-4-4-4-4-4-4-4-4-4-4-4-4-4-|
G#-4-4-4-4-4-4-4-4-4-4-4-4-4-4-4-4-2-2-2-2-2-2-2-2-2-2-2-2-2-2-2-2-|
D#-----------------------------------------------------------------|
Acc.     ^     .     ^     .       .     ^     .     ^     .

Guitar 3
D------------------------------------------------------------------|
A------------------------------------------------------------------|
F----------------------------------5-5-5-5-5-5-5-5-5-5-5-5-5-5-5-5-|
C--0-0-0-0-0-0-0-0-0-0-0-0-0-0-0-0-5-5-5-5-5-5-5-5-5-5-5-5-5-5-5-5-|
G--0-0-0-0-0-0-0-0-0-0-0-0-0-0-0-0-3-3-3-3-3-3-3-3-3-3-3-3-3-3-3-3-|
C--0-0-0-0-0-0-0-0-0-0-0-0-0-0-0-0---------------------------------|

===================================================================

Guitar 1
D#-0-0-0-0-0-0-0-0-0-0-0-0-0-0-0-0-0-0-0-0-0-0-0-0-0-0-0-0-0-0-0-0-|
A#-0-0-0-0-0-0-0-0-0-0-0-0-0-0-0-0-0-0-0-0-0-0-0-0-0-0-0-0-0-0-0-0-|
F#-2-2-2-2-2-2-2-2-2-2-2-2-2-2-2-2-2-2-2-2-2-2-2-2-2-2-2-2-4-4-4-4-|
C#-2-2-2-2-2-2-2-2-2-2-2-2-2-2-2-2-2-2-2-2-2-2-2-2-2-2-2-2-4-4-4-4-|
G#-0-0-0-0-0-0-0-0-0-0-0-0-0-0-0-0-0-0-0-0-0-0-0-0-0-0-0-0-2-2-2-2-|
D#-----------------------------------------------------------------|
Acc.     ^     .     ^     .       .     ^     .     ^     .   . .

Guitar 3
D------------------------------------------------------------------|
A------------------------------------------------------------------|
F--3-3-3-3-3-3-3-3-3-3-3-3-3-3-3-3-3-3-3-3-3-3-3-3-3-3-3-3-5-5-5-5-|
C--3-3-3-3-3-3-3-3-3-3-3-3-3-3-3-3-3-3-3-3-3-3-3-3-3-3-3-3-5-5-5-5-|
G--1-1-1-1-1-1-1-1-1-1-1-1-1-1-1-1-1-1-1-1-1-1-1-1-1-1-1-1-3-3-3-3-|
C------------------------------------------------------------------|

===================================================================

Guitar 1
D#-0-0-0-0-0-0-0-0-0-0-0-0-0-0-0-0-0-0-0-0-0-0-0-0-0-0-0-0-0-0-0-0-|
A#-0-0-0-0-0-0-0-0-0-0-0-0-0-0-0-0-0-0-0-0-0-0-0-0-0-0-0-0-0-0-0-0-|
F#-6-6-6-6-6-6-6-6-6-6-6-6-6-6-6-6-4-4-4-4-4-4-4-4-4-4-4-4-4-4-4-4-|
C#-6-6-6-6-6-6-6-6-6-6-6-6-6-6-6-6-4-4-4-4-4-4-4-4-4-4-4-4-4-4-4-4-|
G#-4-4-4-4-4-4-4-4-4-4-4-4-4-4-4-4-2-2-2-2-2-2-2-2-2-2-2-2-2-2-2-2-|
D#-----------------------------------------------------------------|
Acc.     ^     .     ^     .       .     ^     .     ^     .

Guitar 3
D------------------------------------------------------------------|
A------------------------------------------------------------------|
F----------------------------------5-5-5-5-5-5-5-5-5-5-5-5-5-5-5-5-|
C--0-0-0-0-0-0-0-0-0-0-0-0-0-0-0-0-5-5-5-5-5-5-5-5-5-5-5-5-5-5-5-5-|
G--0-0-0-0-0-0-0-0-0-0-0-0-0-0-0-0-3-3-3-3-3-3-3-3-3-3-3-3-3-3-3-3-|
C--0-0-0-0-0-0-0-0-0-0-0-0-0-0-0-0---------------------------------|

===================================================================

Guitar 1
D#-0-0-0-0-0-0-0-0-0-0-0-0-0-0-0-0-0-0-0-0-0~~~~~~~~~~~~~~-0~~~~-0-|
A#-0-0-0-0-0-0-0-0-0-0-0-0-0-0-0-0-0-0-0-0-0~~~~~~~~~~~~~~-0~~-0~~-|
F#-2-2-2-2-2-2-2-2-2-2-2-2-2-2-2-2-2-2-2-2-2~~~~~~~~~~~~~~-4~~~~~~-|
C#-2-2-2-2-2-2-2-2-2-2-2-2-2-2-2-2-2-2-2-2-2~~~~~~~~~~~~~~-4~~~~~~-|
G#-0-0-0-0-0-0-0-0-0-0-0-0-0-0-0-0-0-0-0-0-0~~~~~~~~~~~~~~-2~~~~~~-|
D#-----------------------------------------------------------------|
Acc.     ^     .     ^     .       .     ^     .     ^     .

Guitar 3
D------------------------------------------------------------------|
A------------------------------------------------------------------|
F--3-3-3-3-3-3-3-3-3-3-3-3-3-3-3-3-3-3-3-3-3~~~~~~~~~~~~~~-5~~~~~~-|
C--3-3-3-3-3-3-3-3-3-3-3-3-3-3-3-3-3-3-3-3-3~~~~~~~~~~~~~~-5~~~~~~-|
G--1-1-1-1-1-1-1-1-1-1-1-1-1-1-1-1-1-1-1-1-1~~~~~~~~~~~~~~-3~~~~~~-|
C------------------------------------------------------------------|

===================================================================
===================================================================


Outro

Guitar 1
D#-0-0-0-0-0-0-0-0-0-0-0-0-0-0-0-0-0-0-0-0-0-0-0-0-0-0-0-0-0-0-0-0-|
A#-0-0-0-0-0-0-0-0-0-0-0-0-0-0-0-0-0-0-0-0-0-0-0-0-0-0-0-0-0-0-0-0-|
F#-6-6-6-6-6-6-6-6-6-6-6-6-6-6-6-6-2-2-2-2-2-2-2-2-2-2-2-2-2-2-2-2-|
C#-6-6-6-6-6-6-6-6-6-6-6-6-6-6-6-6-2-2-2-2-2-2-2-2-2-2-2-2-2-2-2-2-|
G#-4-4-4-4-4-4-4-4-4-4-4-4-4-4-4-4-0-0-0-0-0-0-0-0-0-0-0-0-0-0-0-0-|
D#-----------------------------------------------------------------|
Acc.     ^     .     ^     .       .     ^     .     ^     .

Guitar 3
D------------------------------------------------------------------|
A------------------------------------------------------------------|
F--7~~~~~~~~~~~~~~~~~~~~~~~~~~~~~~~~~~~~~~~~~~~~~~~~~~~~~~~~~~~~~~-
C--7~~~~~~~~~~~~~~~~~~~~~~~~~~~~~~~~~~~~~~~~~~~~~~~~~~~~~~~~~~~~~~-
G--5~~~~~~~~~~~~~~~~~~~~~~~~~~~~~~~~~~~~~~~~~~~~~~~~~~~~~~~~~~~~~~-
C------------------------------------------------------------------

===================================================================

Guitar 1
D#-0~~~~~~~~~~~~~~~~~~~~~~~~~~~~~~~~~~~~~~~~~~~~~~~~~~~~~~~~~~~~~~-
A#-0~~~~~~~~~~~~~~~~~~~~~~~~~~~~~~~~~~~~~~~~~~~~~~~~~~~~~~~~~~~~~~-
F#-6~~~~~~~~~~~~~~~~~~~~~~~~~~~~~~~~~~~~~~~~~~~~~~~~~~~~~~~~~~~~~~-
C#-6~~~~~~~~~~~~~~~~~~~~~~~~~~~~~~~~~~~~~~~~~~~~~~~~~~~~~~~~~~~~~~-
G#-4~~~~~~~~~~~~~~~~~~~~~~~~~~~~~~~~~~~~~~~~~~~~~~~~~~~~~~~~~~~~~~-
D#-----------------------------------------------------------------

===================================================================
===================================================================
===================================================================

Tab Legend
h  -  hammer-on
p  -  pull-off
/  -  slide up
\  -  slide down
ps/-  pickslide up
ps\-  pickslide down
~  -  let ring
pm.-  palm mute
b  -  bend
r  -  return from bend
*  -  harmonic
x  -  dead note
^  -  Whammy bar
^\ -  Whammy bar (hold down)
Acc-  Acsent (. - regular, ^ - forte)

That’s all! I hope it helped, and tell me how I did. Be sure to use my cover as a guide 
if you are having any problems with the tab. Thanks, oh and one last thing... ROCK OUT!!!!





Comments


Popular Egypt Central tabs & chords
Home Chords
Backfire Tabs
Backfire 2 Tabs
Down In Flames Tabs
Enemy Inside Part 2 Tabs
Ghost Town Tabs
Just Another Lie Intro Tabs
You Make Me Sick Tabs
You Make Me Sick 1 Tabs
Different Ukulele


Song lyrics



↑ Back to top | Tablatures and chords are parodies/interpretations of the original songs. You may use it for private study, scholarship, research or language learning purposes only
© 2014 AZChords.com Contact us | Privacy policy | DMCA | Add/correct tabs | Request tabs | Top 50 tabs