>
 >
Rockstar Encore

Rockstar Encore Guitar Tabs

Effinboiche - Rockstar Encore chords, tabs, tablatures, lyrics

Guitar lessons | Add/correct | Request | Top 50 tabs Artists:  A B C D E F G H I J K L M N O P Q R S T U V W X Y Z 0-9

Rockstar Encore Guitar Tabs – Effinboiche

CD, Sheet music, Poster

Do you like Rockstar Encore? Share with your friends now
TabsTabs v2
Rockstar Encore Tab by Effinboiche :
I dedicate this tab to Angelique Fuentes ..heheheheh...lab u..

Sacred Heart College 
Lucena City 
09287150674

Tuning Guitar 1 -( e b g d A D )
       Guitar 2 -( e b g d A D )

h=pukpok
p=angat
^=slight bend
*=palad mute
'=palirit heheh..
x-patay na tali
+=harmoniks



Intro-
1.
Guitar1-
|----------------|----------------|----------------|-----------------|
|----------------|----------------|----------------|-----------------|
|--10-9--10-9-9--|--10-9--10-9-9--|--10-9--10-9-9--|--10-9--10-9-9---|
|10----10--------|10----10--------|10----10--------|10----10---------|
|----------------|----------------|----------------|-----------------|
|----------------|----------------|----------------|-----------------|

|----------------|----------------|----------------|-----------------|
|----------------|----------------|----------------|-----------------|
|--10-9--10-9-9--|--10-9--10-9-9--|--10-9--10p9-9--|--10-9--10-9-9---|
|10----10--------|10----10--------|10----10--------|10----10---------|
|----------------|----------------|----------------|-----------------|
|----------------|----------------|----------------|-----------------|


Guitar 2
|-----------------|-----------------|-----------------|-----------------|
|-----------------|-----------------|-----------------|-----------------|
|-----------------|-----------------|-----------------|-----------------|
|-12-10--12-10-10-|-12-10--12-10-10-|-12-10--12-10-10-|-12-10--12-10-10-|
|10----10---------|10----10---------|10----10---------|10----10---------|
|-----------------|-----------------|-----------------|-----------------|

|-----------------|-----------------|-----------------|-----------------|
|-----------------|-----------------|-----------------|-----------------|
|-----------------|-----------------|-----------------|-----------------|
|-12-10--12-10-10-|-12-10--12-10-10-|-12-10--12-10-10-|-12-10--12-10-10-|
|10----10---------|10----10---------|10----10---------|10----10---------|
|-----------------|-----------------|-----------------|-----------------|

optional(sa live version}
|-----------------|
|-----------------|
|-----------------|
|-----------------|
|-----------------|
|--10-h12---------|

2.


Guitar1
|-----------------|-----------------|-----------------|-----------------|
|-----------------|-----------------|-----------------|-----------------|
|-----------------|-----------------|-----------------|-----------------|
|-333333333333333-|-555555555555555-|-777777777777777-|-777777777777777-|2x
|-333333333333333-|-555555555555555-|-777777777777777-|-777777777777777-|
|-333333333333333-|-555555555555555-|-777777777777777-|-777777777777777-|

Guitar2
|---------------|---------------|---------------|---------------|----------|
|---------------|---------------|---------------|---------------|----------|
|---------------|---------------|---------------|---------------|----------|
|-----9-----10--|-----9-----10--|-----9-----10--|-----9-----10--|-----10h12|
|-8-8---8-8-----|-8-8---8-8-----|-8-8---8-8-----|-8-8---8-8-----|-8-8------|
|---------------|---------------|---------------|---------------|----------|
  * *   * *       * *   * *       * *   * *       * *   * *       * * 


|---------------|---------------|------------------------------------|
|---------------|---------------|------------------------------------|
|---------------|---------------|------------------------------------|
|------10----12-|-----10-----12-|------10-------10-12---14h15p14-----|
|-1010---1010---|-1010---1010---|--1010---10-10------------------15--|
|---------------|---------------|------------------------------------|
  * *    * *       * *   * *       * *    * * 

|---------------|---------------|------------------------------------|
|---------------|---------------|------------------------------------|
|---------------|---------------|--------12^h14----------------------|
|------12----14-|------12----14-|------------------------------------|
|-1212---1212---|-1212---1212---|--12-12-----------------------------|
|---------------|---------------|------------------------------------|
  * *    * *       * *   * *       *  *     

|---------------|---------------|------------------------------------|
|---------------|---------------|------------------------------------|
|---------------|---------------|--------12h14-12--12----------------|
|------12----14-|------12----14-|------------------------------------|
|-1212---1212---|-1212---1212---|--12-12-----------------------------|
|---------------|---------------|------------------------------------|
  * *    * *       * *   * *       *  *     

3.

Guitar1
|-----------------|-----------------|-----------------|-----------------|
|-----------------|-----------------|-----------------|-----------------|
|-----------------|-----------------|-----------------|-----------------|
|-333333333333333-|-555555555555555-|-777777777777777-|-777777777777777-|2x
|-333333333333333-|-555555555555555-|-777777777777777-|-777777777777777-|
|-333333333333333-|-555555555555555-|-777777777777777-|-777777777777777-|

Guitar2
|---------------|---------------|---------------|---------------|----------|
|---------------|---------------|---------------|---------------|----------|
|---------------|---------------|---------------|---------------|----------|
|-----9-----10--|-----9-----10--|-----9-----10--|-----9-----10--|-----10h12|
|-8-8---8-8-----|-8-8---8-8-----|-8-8---8-8-----|-8-8---8-8-----|-8-8------|
|---------------|---------------|---------------|---------------|----------|
  * *   * *       * *   * *       * *   * *       * *   * *       * * 


|---------------|---------------|------------------------------------|
|---------------|---------------|------------------------------------|
|---------------|---------------|------------------------------------|
|------10----12-|-----10-----12-|------10-------10-12---14h15p14-----|
|-1010---1010---|-1010---1010---|--1010---10-10------------------15--|
|---------------|---------------|------------------------------------|
  * *    * *       * *   * *       * *    * * 

|---------------|---------------|------------------------------------|
|---------------|---------------|------------------------------------|
|---------------|---------------|--------12^h14----------------------|
|------12----14-|------12----14-|------------------------------------|
|-1212---1212---|-1212---1212---|--12-12-----------------------------|
|---------------|---------------|------------------------------------|
  * *    * *       * *   * *       *  *     

|---------------|---------------|------------------------------------|
|---------------|---------------|------------------------------------|
|---------------|---------------|--------12h14p12--------------------|
|------12----14-|------12----14-|------------------------------------|
|-1212---1212---|-1212---1212---|--12-12-----------------------------|
|---------------|---------------|------------------------------------|
  * *    * *       * *   * *       *  *  

Verse-


Guitar1(optional}
|-----------------|-----------------|-----------------|-----------------|
|-----------------|-----------------|-----------------|-----------------|
|-----------------|-----------------|-----------------|-----------------|
|-333333333333333-|-555555555555555-|-777777777777777-|-777777777777777-|4x
|-333333333333333-|-555555555555555-|-777777777777777-|-777777777777777-|
|-333333333333333-|-555555555555555-|-777777777777777-|-777777777777777-|

Guitar 2
|-----------------|-----------------|-----------------|-----------------|
|-----------------|-----------------|-----------------|-----10----------|
|--7----7---------|---9-----9-------|---9-----9-------|--9------12------|
|---10----10---10-|----12----12--12-|----12----12--12-|---12-------12---|4x
|-8----8-----8----|-10----10---10---|-12----12---12---|12---------------|
|-----------------|-----------------|-----------------|-----------------|



Interlude-

1.


Guitar1
|-----------------|-----------------|-----------------|-----------------|
|-----------------|-----------------|-----------------|-----------------|
|-----------------|-----------------|-----------------|-----------------|
|--33333---333----|---55555---555---|---77777---777---|---77777---777---|
|--33333---333----|---55555---555---|---77777---777---|---77777---777---|
|--33333---333----|---55555---555---|---77777---777---|---77777---777---|

Guitar2
|-------------------|-------------------|-------------------|-----------|
|-------------------|-------------------|-------------------|-----------|
|-1010101010-101010-|-1212121212-121212-|-1414141414-141414-|-x-x-------|
|-1010101010-101010-|-1212121212-121212-|-1414141414-141414-|-x-x-------|
|-8-8-8-8-8--8-8-8--|-1010101010-101010-|-1212121212-121212-|-x-x-12~---|
|-------------------|-------------------|-------------------|-----------|


|-------------------|-----------------|
|-------------------|-----5+----------|
|-1414141414-141414-|--5+----5+-------|
|-1414141414-141414-|-----------------|
|-1212121212-121212-|-----------------|
|-------------------|-----------------|

2.
Guitar1
|-----------------|-----------------|-----------------|-----------------|
|-----------------|-----------------|-----------------|-----------------|
|-----------------|-----------------|-----------------|-----------------|
|--33333--333-xxx-|--55555--555-xxx-|---77777---777---|---77777---777---|
|--33333--333-xxx-|--55555--555-xxx-|---77777---777---|---77777---777---|
|--33333--333-xx3-|--55555--555-xx5-|---77777---777---|---77777---777---|

Guitar2
|-------------------|-------------------|-------------------|-----------|
|-------------------|-------------------|-------------------|-----------|
|-1010101010-101010-|-1212121212-121212-|-1414141414-141414-|-x-x-------|
|-1010101010-101010-|-1212121212-121212-|-1414141414-141414-|-x-x-------|
|-8-8-8-8-8--8-8-8--|-1010101010-101010-|-1212121212-121212-|-x-x-12~---|
|-------------------|-------------------|-------------------|-----------|


|-------------------|
|-------------------|
|-1414141414-141414-|
|-1414141414-141414-|
|-1212121212-121212-|
|-------------------|

Repeat Verse

Interlude2
1.
Guitar1
|-----------------|-----------------|-----------------|-----------------|
|-----------------|-----------------|-----------------|-----------------|
|-----------------|-----------------|-----------------|-----------------|
|-3-3-3-3-3-3-3-3-|-5-5-5-5-5-5-5-5-|-7-7-7-7-7-7-7-7-|-7-7-7-7-7-7-7-7-|
|-3-3-3-3-3-3-3-3-|-5-5-5-5-5-5-5-5-|-7-7-7-7-7-7-7-7-|-7-7-7-7-7-7-7-7-|
|-3-3-3-3-3-3-3-3-|-5-5-5-5-5-5-5-5-|-7-7-7-7-7-7-7-7-|-7-7-7-7-7-7-7-7-|
Guitar2
|-----------------|-----------------|-----------------|--------------------|
|-----------------|-----------------|-----------------|--------------------|
|1010101010101010-|1212121212121212-|1414141414141414-|12/12/12/14/14/12/12|
|x-x-x-x-x-x-x-x--|x-x-x-x-x-x-x-x--|x-x-x-x-x-x-x-x--|x-x-x-x-x-x-x-x-x-x-|
|8-8-8-8-8-8-8-8--|1010101010101010-|1212121212121212-|10/10/10/12/12/10/10|
|-----------------|-----------------|-----------------|--------------------|


2.
Guitar1
|-----------------|-----------------|-----------------|-----------------|
|-----------------|-----------------|-----------------|-----------------|
|-----------------|-----------------|-----------------|-----------------|
|-3-3-3-3-3-3-3-3-|-5-5-5-5-5-5-5-5-|-7-7-7-7-7-7-7-7-|-7-7-7-7-7-7-7-7-|
|-3-3-3-3-3-3-3-3-|-5-5-5-5-5-5-5-5-|-7-7-7-7-7-7-7-7-|-7-7-7-7-7-7-7-7-|
|-3-3-3-3-3-3-3-3-|-5-5-5-5-5-5-5-5-|-7-7-7-7-7-7-7-7-|-7-7-7-7-7-7-7-7-|

Guitar2
|-----------------|-----------------|-----------------|------------------|
|-----------------|-----------------|-----------------|------------------|
|1010101010101010-|1212121212121212-|1414141414141414-|-1414141414141414-|
|x-x-x-x-x-x-x-x--|x-x-x-x-x-x-x-x--|x-x-x-x-x-x-x-x--|-x-x-x-x-x-x-x-x--|
|8-8-8-8-8-8-8-8--|1010101010101010-|1212121212121212-|-1212121212121212-|
|-----------------|-----------------|-----------------|------------------|


3.
Guitar1
 
|----------------|-----------------|-----------------|------------------|
|----------------|-----------------|-----------------|------------------|
|-10-10-10-10-10-|-12-12-12-12-12--|-14-14-14-14-14--|-14-14-14-14-14---|
|-x--x--x--x--x--|-x--x--x--x--x---|-x--x--x--x--x---|-x--x--x--x--x----|
|-8--8--8--8--8--|-10-10-10-10-10--|-12-12-12-12-12--|-12-12-12-12-12---|
|----------------|-----------------|-----------------|------------------|
  ^  ^  ^  ^  ^     ^  ^ ^  ^   ^    ^   ^  ^  ^  ^     ^  ^  ^ ^  ^

Guitar2

|-----------------|-----------------|-----------------|--------------------|
|-----------------|-----------------|-----------------|---------8----------|
|-----------------|-----------------|-----------------|------9-------------|
|-----------------|-----------------|-----------------|-1010--10--10-9h10--|
|-----------------|-----------------|-----------------|--------------------|
|-----------------|-----------------|-----------------|--------------------|
                                                        * *   

4.

Guitar1
 
|----------------|-----------------|-----------------|------------------|
|----------------|-----------------|-----------------|------------------|
|-10-10-10-10-10-|-12-12-12-12-12--|-14-14-14-14-14--|-14-14-14-14-14---|
|-x--x--x--x--x--|-x--x--x--x--x---|-x--x--x--x--x---|-x--x--x--x--x----|
|-8--8--8--8--8--|-10-10-10-10-10--|-12-12-12-12-12--|-12-12-12-12-12---|
|----------------|-----------------|-----------------|------------------|
  ^  ^  ^  ^  ^     ^  ^ ^  ^   ^    ^   ^  ^  ^  ^     ^  ^  ^ ^  ^

Guitar2
cd version
|------------------|------------------|------------------|-----------------|
|------------------|------------------|------------------|-----------------|
|------------------|------------------|------------------|-----------------|
|00-7^-7^-7^-7^-7^-|00-9^-9^-9^-9^-9^-|00-10^10^10^10^10^|0010^10^10^10^10^|
|00---0--0--0--0---|00---0--0--0--0---|00---0--0--0--0---|00---0--0--0--0--|
|00---0--0--0--0---|00---0--0--0--0---|00---0--0--0--0---|00---0--0--0--0--|
**    *  *  *  *    **   *  *  *  *    **   *  *  *  *    **   *  *  *  *

or
live version
|------------------|------------------|------------------|-----------------|
|------------------|------------------|------------------|-----------------|
|------------------|------------------|------------------|-----------------|
|00-7^-9^-7^-9^-7^-|00-9^10^-9^10^-9^-|00-10^12^10^12^10^|0010^12^10^12^12^|
|00---0--0--0--0---|00---0--0--0--0---|00---0--0--0--0---|00---0--0--0--0--|
|00---0--0--0--0---|00---0--0--0--0---|00---0--0--0--0---|00---0--0--0--0--|
**    *  *  *  *    **   *  *  *  *    **   *  *  *  *    **   *  *  *  *
Bridge-
Guitar1
|-----------------|-----------------|-----------------|-----------------|
|-----------------|-----------------|-----------------|-----------------|
|-----------------|-----------------|-----------------|-----------------|
|-3-3-3-3-3-3-3-3-|-5-5-5-5-5-5-5-5-|-7-7-7-7-7-7-7-7-|-7-7-7-7-7-7-7-7-|
|-3-3-3-3-3-3-3-3-|-5-5-5-5-5-5-5-5-|-7-7-7-7-7-7-7-7-|-7-7-7-7-7-7-7-7-|2x
|-3-3-3-3-3-3-3-3-|-5-5-5-5-5-5-5-5-|-7-7-7-7-7-7-7-7-|-7-7-7-7-7-7-7-7-|

Guitar2                                        
|-----------------|-----------------|-----------------|------------------|
|-----------------|-----------------|-----------------|------------------|
|1010101010101010-|1212121212121212-|1414141414141414-|-1717171616171719-|
|x-x-x-x-x-x-x-x--|x-x-x-x-x-x-x-x--|x-x-x-x-x-x-x-x--|-x-x-x-x-x-x-x-x--|
|8-8-8-8-8-8-8-8--|1010101010101010-|1212121212121212-|-1515151414151517-|
|-----------------|-----------------|-----------------|------------------|

|-----------------|-----------------|-----------------|--------------------|
|-----------------|-----------------|-----------------|--------------------|
|1010101010101010-|1212121212121212-|1414141414141414-|-171717161614171717-|
|x-x-x-x-x-x-x-x--|x-x-x-x-x-x-x-x--|x-x-x-x-x-x-x-x--|-x-x-x-x-x-x-x-x-x--|
|8-8-8-8-8-8-8-8--|1010101010101010-|1212121212121212-|-151515141414151515-|
|-----------------|-----------------|-----------------|--------------------|


Outro-
1.
Guitar1
|-----------------|-----------------|-----------------|-----------------|
|-----------------|-----------------|-----------------|-----------------|
|-----------------|-----------------|-----------------|-----------------|
|-3-3-3-3-3-3-3-3-|-5-5-5-5-5-5-5-5-|-7-7-7-7-7-7-7-7-|-7-7-7-7-7-7-7-7-|
|-3-3-3-3-3-3-3-3-|-5-5-5-5-5-5-5-5-|-7-7-7-7-7-7-7-7-|-7-7-7-7-7-7-7-7-|2x
|-3-3-3-3-3-3-3-3-|-5-5-5-5-5-5-5-5-|-7-7-7-7-7-7-7-7-|-7-7-7-7-7-7-7-7-|

|--------many times hehehe------|
|-------------------------------||---------------|-----------------|
|-----------8-------------------||---------------|--------8--------|
|------9------------------------||-----9h10-9----|-----9-----------|
|-9h10---h10--h10--9h10---------||-9h10-------10-|-9h10-10--10-----|
|-------------------------------||---------------|-----------------|
|-------------------------------||---------------|-----------------|

2.
Guitar1
|-----------------|-----------------|-----------------|-----------------|
|-----------------|-----------------|-----------------|-----------------|
|-----------------|-----------------|-----------------|-----------------|
|-333333333333333-|-555555555555555-|-777777777777777-|-777777777777777-|
|-333333333333333-|-555555555555555-|-777777777777777-|-777777777777777-|
|-333333333333333-|-555555555555555-|-777777777777777-|-777777777777777-|

|-----------------|-----------------|-----------------|------------------|
|-----------------|-----------------|-----------------|------------------|
|-14141414141414--|-16161616161616--|-17171717171717--|-1717171717171717-|
|-x-x-x-x-x-x-x---|-x-x-x-x-x-x-x---|-x-x-x-x-x-x-x---|-x-x-x-x-x-x-x-x--|
|-12121212121212--|-14141414141414--|-15151515151515--|-1515151515151515-|
|-----------------|-----------------|-----------------|------------------|

3,
Guitar1
|-----------------|-----------------|-----------------|
|-----------------|-----------------|-----------------|
|-----------------|-----------------|-----------------|
|-33----3~--------|--55~---5~-------|--77~----7~------|
|-33----3~--------|--55~---5~-------|--77~----7~------|
|-33----3~--------|--55~---5~-------|--77~----7~------|
  **                 **                **               
Guitar2
|-----------------|-----------------|-----------------|-----------------|
|-----------------|-----------------|-----------------|-----------------|
|-------14~-------|--------16~------|---------17~-----|-----------------|
|-------x---------|--------x--------|---------x-------|-----------------|
|-------12~-------|--------14~------|---------15~-----|-----------------|
|-----------------|-----------------|-----------------|-----------------|





Comments


Popular Effinboiche tabs & chords
All We Know Tabs
I Dont Remember Tabs
I Dont Remember 2 Tabs
I Dont Remember Intro Tabs
Rockstar Encore 1 Tabs


Song lyrics



↑ Back to top | Tablatures and chords are parodies/interpretations of the original songs. You may use it for private study, scholarship, research or language learning purposes only
© 2014 AZChords.com Contact us | Privacy policy | DMCA | Add/correct tabs | Request tabs | Top 50 tabs