» » »

Eels, Mr Es Beautiful Blues Bass tabs (ver.1)

Artists:  A B C D E F G H I J K L M N O P Q R S T U V W X Y Z # 

Mr Es Beautiful Blues Bass tabs (ver.1)

Eels Tabs
Rating:
0/5 (0 votes)
Mr Es Beautiful Blues lessons Tabs too difficult? Try these video lessons and learn fast
                Standard Tuning

 Main Riff
G|----------------------------------------| 
D|--------------2--------4-------2--------| 
A|------2-----3----3---5---5---3----3-----| 
E|--3-3---3-------------------------------| 
    ^ This G is played first time round and
      whenever the riff is introduced back

 Variation One: 1.12
G|----------------------11----------9-----| 
D|------------2------12----12----10---10--| 
A|----2-----3----3------------------------| 
E|--3---3---------------------------------| 

 Variation Two: 1.50
G|--------------9---------11--------9-----| 
D|-----9-12--10---10---12----12--10---10--|
A|--10------------------------------------| 
E|----------------------------------------| 

 No Bass at 2.15
 Repeat Main Riff till End
            
Submit corrections

comments powered by Disqus
↑ Back to top | Eels Bass for Mr Es Beautiful Blues. Lyrics for acoustic guitar and electric guitar. Tablatures and chords are parodies/interpretations of the original songs. You may use it for private study, scholarship, research or language learning purposes only