>
 >
Sign On The Door 1

Sign On The Door 1 Guitar Tabs

Edwin Mccain - Sign On The Door 1 chords, tabs, tablatures, lyrics

Guitar lessons | Add/correct | Request | Top 50 tabs Artists:  A B C D E F G H I J K L M N O P Q R S T U V W X Y Z 0-9

Sign On The Door 1 Guitar Tabs – Edwin Mccain

CD, Sheet music, Poster

Do you like Sign On The Door 1? Share with your friends now
ChordsChords v2TabsTabs v2UkuleleUkulele v2
Intro

--------------------------------------------------|
--------------------------------------------------|
------6--9--/11-----------------------------------|
-/11------------11\9----7h9-7-----7-9--11p9/7-----|
-------------------------------9---------------9--|
--------------------------------------------------|

--------------------------9^--|    -------12------------------------------|
----------10-10p7--10/12------|    -10/12----12b^^r10----10---10\8-(7)----|
-------11---------------------|    -------------------11------11\9--7--6--|
-9h11-------------------------|    ------------------------------------7--|
------------------------------|    ---------------------------------------|
------------------------------|    ---------------------------------------|

Intro/Verse Chords

A E F#m D x4

Chorus Chords

A E Bm x3 Then A Bm E D



Solo 1

(Chords same as verse, played 1x)
-----------------------------------------------------------------------------|
-----------------------------------------------------------------------------|
--------9--11--------------9/11--------9-11--------------7/9--7--------------|
-9/11-----------9/11/9------------11----------7/9--7--------------9b^-7h9-7--|
-----------------------------------------------------------------------------|
-----------------------------------------------------------------------------|

Verse 2 Chords

A E F#m D x4

Chorus Chords

E Bm x1



Solo 2

(Chords A E F#m D)

----------|
----12b^--|
-11-------|
----------|
----------|
----------|

-9--(9)--------------------------------------------------------|
-9h109-----------------------------------------10-10-----------|
-------11-9----------------------------7h9-7---9--9---7-6------|
-------------/12\11-----9h11p9\7----7---------------------9-7--|
----------------------------------9----------------------------|
---------------------------------------------------------------|

-----------------------------------------------------17--17\\---14--------------------------|
---------------------------------------17--\21--/19------17\\---14h17p14--------------------|
------9-9h11---------------------16-18-----------------------------------16-14----------14--|
-9h11--------9h11\7-----------14-----------------------------------------------16-14h16-----|
------------------------14-16---------------------------------------------------------------|
--------------------------------------------------------------------------------------------|

Verse 3 Chords

A Bm F#m D x3

Chorus Chords

A Bm E D x1



Solo 3

(Chords A E F#m D)

-------------------------------------------------------------------------------------------|
-----14-14---14----14-----------17---------------------------------------------------------|
-\14-------14---14-------16-16------14h16p14------------14-14------------------------------|
----------------------------------------------16--14h16----14h16-14-12--16p14----14--------|
------------------------------------------------------------------------------16----14\12--|
-------------------------------------------------------------------------------------------|

Chorus Chords

A E Bm x3 A Bm x1

Outro Chords

A D A Bm (till end)





Comments


Popular Edwin Mccain tabs & chords
3 Am 2 Chords
I Could Not Ask For More 1 Chords
Ill Be 10 Chords
Sign On The Door Tabs
Alive Ukulele
I Could Not Ask For More Ukulele
I Want It All Ukulele
Kiss Ukulele
Solitude Ukulele
Throw It All Away Ukulele


Song lyrics



↑ Back to top | Tablatures and chords are parodies/interpretations of the original songs. You may use it for private study, scholarship, research or language learning purposes only
© 2014 AZChords.com Contact us | Privacy policy | DMCA | Add/correct tabs | Request tabs | Top 50 tabs