» » »

Ed Sheeran, All My Life Tabs (ver.1)

Artists:  A B C D E F G H I J K L M N O P Q R S T U V W X Y Z # 

All My Life Tabs (ver.1)

Ed Sheeran Tabs
 Rating:
4/5 (4 votes)
All My Life lessons Tabs too difficult? Try these video lessons and learn fast
1
                I tried my best. I couldn't find tab anywhere else. This sounds different then he plays it but
I'm pretty sure these are the chords. You can sing in the same pitch and it will sound 
good. You can try different tunings as well. I'm sorry if its wrong but it should at 
least get you on the right track.


Darlin' I've been waiting for    |    crossed towns and hills  and rivers
you all my life.                      for you all my life

E|-----5------------2--------4---5------------------5---------5------4------2-|
B|-----5---------3-------5-------7------------------5---------7------5------3-|
G|-----6------2-------4----------6------------------6---------6------4------2-|
D|-----7-------------------------7------------------7---------7------6------4-|
A|-----7-------------------------5------------------7---------5------4------2-|
E|-----5--------------------------------------------5-------------------------|

But I'm wondering in the dark now,  cause we need to make | so please stand
                                    it do                   beside me in


E|-------x2-----2-----2-----x2-----2---------2-----x2---------2------4------|
B|-------x3-----3-----2-----x2-----3----0----2-----x2---------3------5------|
G|-------x2-----2-----2-----x2-----2----1----2-----x2---------2------4------|
D|--4----x4-----4-----4-----x4-----4----2----4-----x4---------4------6------|
A|2------x2-----2-----4-----x4-----2----2----4-----x4---------2------4------|
E|--------------------2-----x2---------------2-----x2-----------------------|

all i do                      so wont you come here

E|-----9--------7-------5      ------7------------|
B|----10--------9-------7      ------9------------|
G|-----9--------9-------6      ------9------------|
D|----11--------9-------7      ------9------------|
A|-----9--------7-------5      ------7------------|
E|-----------------------      -------------------|

chorus

E|---------2-------5----5----------9h--9------7-|
B|-0-------2-------5----5----------9h-10------9-|
G|-1-------2-------7----6----------9h--9------9-|
D|-2-------4-------7----7----------9h--11-----9-|
A|-2-------4-------5----7----------9h--9------7-|
E|---------2------------5-----------------------|



Darling I've been waiting for you
All my life
Crossed towns and hills and river for you
All my life
But I'm wondering in the dark now, cause I'm looking for you still
In my heart I'm longing to walk up this hill.

I'm really cant pull out the thorn, love
All my life
And not having you pressed to my chest
All my life
This storm is playing out now on this painful world stage
Of all our incompleteness in the wars we wage.
so wont you come here

cause it's written on my hand
i want it printed on your body, yeah printed on your soul
singing you're love makes me a different man
i want a soul into my body, i want a  soul into me

I'm drinking Evian from your lips, Darlin'
Evian from your hands i wanna drink
Evian from your heart
Evian from your pants darlin
Evian from your lips darlin
Evian from your hands i wanna drink evian, evian

Singing songs of love like Gitanjali
All my life
And we'll find this truth out, finally
In the heart of our lives
and this song is playing out now, but need to make it through
so please walk beside me in all I do.

Won't you come here?

cause it's written on my hand
i want it printed on your body, yeah printed on your soul
singing you're love makes me a different man
i want a soul into my body, i want a  soul into me

I'm drinking Evian from your lips, Darlin'
Evian from your hands i wanna drink
Evian from your heart
Evian from your pants darlin
Evian from your lips darlin
Evian from your hands i wanna drink evian, evian
            
Submit corrections

comments powered by Disqus
↑ Back to top | Ed Sheeran Tabs for All My Life. Lyrics for acoustic guitar and electric guitar. 1 Tablatures and chords are parodies/interpretations of the original songs. You may use it for private study, scholarship, research or language learning purposes only