» » »

Ed Sheeran, Give Me Love Tabs (ver.1)

Artists:  A B C D E F G H I J K L M N O P Q R S T U V W X Y Z # 

Give Me Love Tabs (ver.1)

Ed Sheeran Tabs
 Rating:
4.6/5 (11 votes)
Give Me Love lessons Tabs too difficult? Try these video lessons and learn fast
1
                -Not my work-
Ed Sheeran - Give Me Love

*This is the recorded version - he plays it differently live*

Capo 1st fret
Single notes shown in brackets

e|--------------------------------------------------------------------------|
B|--------------------------------------------------------------------------|
G|--------------------------------------------------------------------------|
D|--------------------------------------------------------------------------|
A|--3-------0---------------------------------------------------------------|
E|-----3-4------------------------------------------------------------------|

Intro and verses:  Am  (e) F C  C/B

Give me love like her, 'cause lately I've been waking up alone, Paint
Splattered teardrops on my shirt, Told you I'd let them go,

Bridges: Dm F  C  G/B  Dm (e) F

And that I'll Fight my corner, Maybe tonight I'll call ya, after my blood turns into
Alcohol, No I just wanna hold ya.

Chorus: ||: C Dm F :||  x 3  Am G F

e|----------------------------------------------------------|
B|----------------------------------------------------------|
G|----------------------------------------------------------|
D|----------------------------------------------------------|
A|---0-0-------3-3-3-3-3-3----------------------------------|  x 3
E|-3-----1-1-1----------------------------------------------|

e|----------------------------------------------------------|
B|----------------------------------------------------------|
G|----------------------------------------------------------|
D|----------------------------------------------------------|
A|---0-0-------3--------------------------------------------|
E|-3-----1-1-1----------------------------------------------|


Give a little time to me, or burn this out, We'll play hide and seek to
Turn this around, And all I want is the taste that your lips allow, My, my,
My, my, oh give me love, my, my, my, my, oh give me love, My, my, my, my,
Oh give me love, my, my, my, my, oh give me love, My, my, my, my, oh give
Me love.

Verse:
Give me love like never before, 'cause lately I've been craving more, And
It's been a while but I still feel the same, Maybe I should let you go,
Bridge:
You Know I'll fight my corner, And that tonight I'll call ya, After my blood is
Drowning in alcohol, No I just wanna hold ya.

Longer Chorus: ||: C Dm F :||  x 3  Am G F
               ||: C Dm F :||  x 3  Am G F

e|----------------------------------------------------------|
B|----------------------------------------------------------|
G|----------------------------------------------------------|
D|----------------------------------------------------------|
A|---------------------3-x-3-x-x-3-x-3-x-3------------------|  x 4
E|-5-x-5-x-x-1-x-1-x-x--------------------------------------|


*The next part has three guitars parts I think and is tricky to work out so I'll leave 
it here.. peace out*

Give a little time to me, or burn this out, We'll play hide and seek to
Turn this around, And all I want is the taste that your lips allow, my, my,
My, my, Oh give me love, give a little time to me, or burn this out, We'll
Play hide and seek to turn this around, And all I want is the taste that
Your lips allow, My, my, my, my, oh give me love, my, my, my, my, oh give
Me love, my, my, my, my, oh give me love, my, my, my, my, oh give me love,
My my, my, my, oh give me love.

M-my my, m-my my, m-my my, give me love, lover, M-my my, m-my my, m-my my,
Give me love, lover, M-my my, m-my my, m-my my, give me love, lover, M-my
My, m-my my, m-my my, give me love, lover.

M-my my, m-my my, m-my my, give me love, lover, M-my my, m-my my, m-my my,
Give me love, lover, M-my my, m-my my, m-my my, give me love, lover, M-my
My, m-my my, m-my my, give me love, lover (Love me, love me, love me).

M-my my, m-my my, m-my my, give me love, lover (give me love), M-my my,
M-my my, m-my my, give me love, lover (give me love), M-my my, m-my my,
M-my my, give me love, lover (give me love, love me), M-my my, m-my my,
M-my my, give me love, lover (give me love).

My, my, my, my, Oh give me love, My, my, my, my, Oh give me love, My, my,
My, my, Oh give me love, My, my, my, my, Oh give me love
            
Submit corrections

comments powered by Disqus
↑ Back to top | Ed Sheeran Tabs for Give Me Love. Lyrics for acoustic guitar and electric guitar. 1 Tablatures and chords are parodies/interpretations of the original songs. You may use it for private study, scholarship, research or language learning purposes only