» » »

Editors, Heads In Bags Tabs (ver.1)

Artists:  A B C D E F G H I J K L M N O P Q R S T U V W X Y Z # 

Heads In Bags Tabs (ver.1)

Editors Tabs
 Rating:
4/5 (4 votes)
Heads In Bags lessons Tabs too difficult? Try these video lessons and learn fast
1
                Editors

This is the B-side of one of “The Back Room” album singles “Blood”

Lead Guitar (Chris) part

Intro

|---0-0-0-0-0-0-0-0-0-0-0-0-0-0-0--0----|
|--9-9-9-9-9-9-2-4-5-5-5-5-5-5-5-10-----|
|---------------------------------------|    x2
|---------------------------------------|
|---------------------------------------|
|---------------------------------------|

|-4-4-4---4-4-4---4-4-4---4-4-4------------------------------------|
|-------4-------4-------4-------4--6-6-6-4—6-6-6-4—6-6-6-4—6-6-6-4-|
|------------------------------------------------------------------|
|------------------------------------------------------------------| x2
|------------------------------------------------------------------|
|------------------------------------------------------------------|

Verse
As the intro
The last time before the chorus is

|---0-0-0-0-0-0-0-0-0-0-0-0-0-0-0-0------|
|--9-9-9-9-9-9-2-4-5-5-5-5-5-5-5-5-------|
|----------------------------------------|
|----------------------------------------|
|----------------------------------------|
|----------------------------------------|

Chorus
picking (i’m not sure about this)

|---------------------------------------|
|---------------------------------------|
|---------------------------------------|
|--9999999999999999—7777777777777777----| x2
|---------------------------------------|
|---------------------------------------|

3rd time is

|---------------------------------------------------------------------|
|---------------------------------------------------------------------|
|---------------------------------------------------------------------|
|--99999999999999999999999999999999--77777777777777777777777777777777-|
|---------------------------------------------------------------------|
|---------------------------------------------------------------------|

then

|----------------------------------------|
|--7-7---7-7-7----7-7---7-7-7------------|
|----------------------------------------|
|----------------------------------------|
|----------------------------------------|
|----------------------------------------|

verse

chorus

bridge

|---0---0----0-0-0-0-0--------------------------------|
|--9-9/2-2--9-9-5-4-2---7-7--7-7-7---7-7---7-7-7------|
|-----------------------------------------------------|
|-----------------------------------------------------| x3
|-----------------------------------------------------|
|-----------------------------------------------------|

|---0---0--------0-0-0--------------------------------|
|--9-9/2-2—9999-5-4-2----7777777777777777-------------|
|-----------------------------------------------------|
|-----------------------------------------------------|
|-----------------------------------------------------|
|-----------------------------------------------------|

chorus

then

|----------------------------------------|
|--7-7---7-7-7----7-7---7-7-7------------|
|----------------------------------------|
|----------------------------------------|
|----------------------------------------|
|----------------------------------------|


Rhythm guitar part (Tom)
Capo 2nd fret
He only plays during the intro and the chorus

Intro

D Em

Chorus

Am Em

Ending on Em


thanks :D
comments are welcome
            
Submit corrections

comments powered by Disqus
↑ Back to top | Editors Tabs for Heads In Bags. Lyrics for acoustic guitar and electric guitar. 1 Tablatures and chords are parodies/interpretations of the original songs. You may use it for private study, scholarship, research or language learning purposes only