» » »

Editors, Alone Bass tabs (ver.1)

Artists:  A B C D E F G H I J K L M N O P Q R S T U V W X Y Z # 

Alone Bass tabs (ver.1)

Editors Tabs
 Rating:
4/5 (4 votes)
Alone lessons Tabs too difficult? Try these video lessons and learn fast
1
                -------------------------------------------------------------------------------
-------------------------------------------------------------------------------


Tuning: Standard (EADG)

Intro/Verse 1 (0:10)

G|------|------|------|------|
D|------|------|------|------|
A|--4~--|--6~--|--0~--|--2~--| (x3)
E|------|------|------|------|

Chorus (0:45)

   1 + 2 + 3 + 4 +    1 + 2 + 3 + 4 +    1 + 2 + 3 + 4 +    1 + 2 + 3 + 4 +
G|------------------|------------------|------------------|------------------|
D|------------------|------------------|------------------|------------------|
A|------------------|-4444444422222222-|------------------|-4444444466666666-|
E|-222-5-x-222-5-x--|------------------|-222-5-x-222-5-x--|------------------|

Verse 2 (0:57)

   1 + 2 + 3 + 4 +    1 + 2 + 3 + 4 +    1 + 2 + 3 + 4 +    1 + 2 + 3 + 4 +
G|------------------|------------------|------------------|------------------|
D|------------------|------------------|------------------|------------------|
A|-4~----44~--------|-6~-/9\6----------|-0~----00~--------|-2~-/4\2------67\-|
E|------------------|------------------|------------------|------------------|

   1 + 2 + 3 + 4 +    1 + 2 + 3 + 4 +    1 + 2 + 3 + 4 +    1 + 2 + 3 + 4 +
G|------------------|------------------|------------------|------------------|
D|------------------|------------------|------------------|------------------|
A|-4~----44~--------|-6~-/9\6----------|-0~----00~--------|-2~-/4\2----------|
E|------------------|------------------|------------------|---------------7\-|

Chorus (1:21)

   1 + 2 + 3 + 4 +    1 + 2 + 3 + 4 +    1 + 2 + 3 + 4 +    1 + 2 + 3 + 4 +
G|------------------|------------------|------------------|------------------|
D|------------------|------------------|------------------|------------------|
A|------------------|-4444444422222222-|------------------|-4444444466666666-| (x2)
E|-222-5-x-222-5-x--|------------------|-222-5-x-222-5-x--|------------------|

Bridge (1:44)

   1 + 2 + 3 +  4   +    1 + 2 + 3 + 4 +
G|---------------------|------------------|
D|---------------------|------------------|
A|-9999999999999/11-11\|-4444444444446677-| (x4)
E|---------------------|------------------|

   1 + 2 + 3 + 4 +    1 + 2 + 3 + 4 +    1 + 2 + 3 + 4 +    1 + 2 + 3 + 4 +
G|------------------|------------------|------------------|------------------|
D|------------------|------------------|------------------|------------------|
A|-4~----44~--------|-6~-/9\6----------|-0~----00~--------|-2~-/4\2------67\-|
E|------------------|------------------|------------------|------------------|

   1 + 2 + 3 + 4 +    1 + 2 + 3 + 4 +    1 + 2 + 3 + 4 +    1 + 2 + 3 + 4 +
G|------------------|------------------|------------------|------------------|
D|------------------|------------------|------------------|------------------|
A|-4~----44~--------|-6~-/9\6----------|-0~----00~--------|-2~-/4\2----------|
E|------------------|------------------|------------------|---------------7\-|

Chorus/Outro (2:31)

   1 + 2 + 3 + 4 +    1 + 2 + 3 + 4 +    1 + 2 + 3 + 4 +    1 + 2 + 3 + 4 +
G|------------------|------------------|------------------|------------------|
D|------------------|------------------|------------------|------------------|
A|------------------|-4444444422222222-|------------------|-4444444466666666-| (x2)
E|-222-5-x-222-5-x--|------------------|-222-5-x-222-5-x--|------------------|

   1 + 2 + 3 + 4 +    1 + 2 + 3 + 4 +    1 + 2 + 3 + 4 +    1 + 2 + 3 + 4 +
G|------------------|------------------|------------------|------------------|
D|------------------|------------------|------------------|------------------|
A|------------------|-4444444466666666-|------------------|------[REST]------|
E|-222-5-x-222-5-x--|------------------|-222-5-x-222-5-x--|------------------|

This track is a b-side for Eat Raw Meat = Blood Drool.
Some parts (verses in particular) were kinda hard to pick out the bass from, so 
corrections are more than welcome.
Cheers!

| /  slide up
| \  slide down
| h  hammer-on
| p  pull-off
| ~  vibrato
| +  harmonic
| x  Mute note
===============================================================================
            
Submit corrections

comments powered by Disqus
↑ Back to top | Editors Bass for Alone. Lyrics for acoustic guitar and electric guitar. 1 Tablatures and chords are parodies/interpretations of the original songs. You may use it for private study, scholarship, research or language learning purposes only