» » »

Ed Harcourt, Something In My Eye Chords (ver.2)

Artists:  A B C D E F G H I J K L M N O P Q R S T U V W X Y Z # 

Something In My Eye Chords (ver.2)

Ed Harcourt Tabs
Rating:
0/5 (0 votes)
Something In My Eye lessons Tabs too difficult? Try these video lessons and learn fast
                Nick Harbourne

Gtr I Gtr I (E B E G# B E) - 'Something
My Eye'

Notes within <> are harmonics; do this by resting your fingers over the given frets just
that it makes a ringing sound. Practice makes this technique sound good, and it's what
uses in this piece. This is not an exact rhythm, just an estimate; listen to the track 
the exact rhythm!

  Gtr I
0.00s Intro Chord
E |--0--|
B |--0--|
G#|--0--|
E |--0--|
B |--0--|
E |--0--|

0.03s Main Riff
|---0-------0---0-<12>--|---0-------0---0-<12>----|
|---0-------0---0-<12>--|---0-------0---0-<12>----|
|---0-<12>--0---0-<12>--|---0-<12>--0---0-<12>----|
|-0-0-<12>----0-0-<12>--|-0-0-<12>----0-0-<12>----|
|-0---<12>----0---------|-0---<12>----0-----------|
|-0---<12>----0---------|-0---<12>----0-----------|x6 (or so)

0.24s "...Legs, you know..."
|-0-0-0-0-0-0-0-0----|
|-2-2-2-2-2-2-2-2----|
|-1-1-1-1-1-1-1-1----|
|-0-0-0-0-0-0-0-0----|
|--------------------|
|--------------------|


0.27s Main Riff
|---0-------0---0-<12>--|---0-------0---0-<12>----|
|---0-------0---0-<12>--|---0-------0---0-<12>----|
|---0-<12>--0---0-<12>--|---0-<12>--0---0-<12>----|
|-0-0-<12>----0-0-<12>--|-0-0-<12>----0-0-<12>----|
|-0---<12>----0---------|-0---<12>----0-----------|
|-0---<12>----0---------|-0---<12>----0-----------|x4 (or so)

0.42s "...Web the patterns flow..."
|-0-0-0-0-0-0-0-0----|
|-2-2-2-2-2-2-2-2----|
|-1-1-1-1-1-1-1-1----|
|-0-0-0-0-0-0-0-0----|
|--------------------|
|--------------------|

0.45s Main Riff
|---0-------0---0-<12>--|---0-------0---0-<12>----|
|---0-------0---0-<12>--|---0-------0---0-<12>----|
|---0-<12>--0---0-<12>--|---0-<12>--0---0-<12>----|
|-0-0-<12>----0-0-<12>--|-0-0-<12>----0-0-<12>----|
|-0---<12>----0---------|-0---<12>----0-----------|
|-0---<12>----0---------|-0---<12>----0-----------|x2 (or so)

0.51s "There's Something In My Eye..."
|-7-7-7-7-7-7-7-7----|
|-7-7-7-7-7-7-7-7----|
|-7-7-7-7-7-7-7-7----|
|-7-7-7-7-7-7-7-7----|
|-7-7-7-7-7-7-7-7----|
|-7-7-7-7-7-7-7-7----|

0.51s "There's Something In My..."
|-7-7-7-7-7-7-7-7----|
|-7-7-7-7-7-7-7-7----|
|-7-7-7-7-7-7-7-7----|
|-7-7-7-7-7-7-7-7----|
|-7-7-7-7-7-7-7-7----|
|-7-7-7-7-7-7-7-7----|

0.55s "...Eye, Bloodshot in..."
|-5-5-5-5-5-5-5-5----|
|-5-5-5-5-5-5-5-5----|
|-5-5-5-5-5-5-5-5----|
|-5-5-5-5-5-5-5-5----|
|-5-5-5-5-5-5-5-5----|
|-5-5-5-5-5-5-5-5----|

0.58s "...Disguise..."
|-9-9-9-9-9-9-9-9----|
|-9-9-9-9-9-9-9-9----|
|-9-9-9-9-9-9-9-9----|
|-9-9-9-9-9-9-9-9----|
|-9-9-9-9-9-9-9-9----|
|-9-9-9-9-9-9-9-9----|

1.01s "...I really tried ..."
|-2-2-2-2-2-2-2-2----|
|-2-2-2-2-2-2-2-2----|
|-2-2-2-2-2-2-2-2----|
|-2-2-2-2-2-2-2-2----|
|-2-2-2-2-2-2-2-2----|
|-2-2-2-2-2-2-2-2----|x2

|--0--|
|--0--|
|--0--|
|--0--|
|--0--|
|--0--|(continuous strumming; I can't be bothered to tab the chord 16 times!)x2 bars

|--0--|
|--2--|
|--1--|
|--0--|
|--2--|
|--x--|(continuous strumming; I can't be bothered to tab the chord 16 times!)x2 bars

|---0-------0---0-<12>--|---0-------0---0-<12>----|
|---0-------0---0-<12>--|---0-------0---0-<12>----|
|---0-<12>--0---0-<12>--|---0-<12>--0---0-<12>----|
|-0-0-<12>----0-0-<12>--|-0-0-<12>----0-0-<12>----|
|-0---<12>----0---------|-0---<12>----0-----------|
|-0---<12>----0---------|-0---<12>----0-----------|

Sorry but the I have lost time and/or patience, just listen to the song as it is
in the chords!
            

comments powered by Disqus
↑ Back to top | Ed Harcourt Chords for Something In My Eye. Lyrics for acoustic guitar and electric guitar. Tablatures and chords are parodies/interpretations of the original songs. You may use it for private study, scholarship, research or language learning purposes only