» » »

Out Of Vogue Tabs (ver.1)

Artists:  A B C D E F G H I J K L M N O P Q R S T U V W X Y Z # 

Out Of Vogue Tabs (ver.1)

Edguy
Rating:
0/5 (0 votes)

Hard to play? Try these video lessons and learn fast.
                Okey, this is my first tab, it is also pretty much the only Edguy, Out Of Vogue tab 
so feel free to tell me if i have made mistakes or change it to make a better tab.


Riff 1
e--------------------------------------------------------------------|
B--------------------------------------------------------------------|
G--------------------------------------------------------------------|
D----5----5-4------5-7-8-6-------5-4----5-7-4-2-----5-4------5-7-8-6-|
A----5----5-4------5-7-8-6-------5-4----5-7-4-2-----5-4------5-7-8-6-|
E----3-0--3-2-0--0-3-5-6-4--0-0--3-2--0-3-5-2-0-0-0-3-2-0--0-3-5-6-4-|

e----------------------------|
B----------------------------|
G----------------------------|
D----5-----4-----5-----3-----|   X2
A----5-----4-----5-----3-----|
E----3-0-0-2-0-0-3-0-0-1-0-0-|

Break
e----------------------------|
B----------------------------|
G----------------------------|
D----4---4-6---4-3-----4-4-4-|
A----4---4-6---4-3-----4-4-4-|
E----2-0-2-4-0-2-1-0-0-2-2-2-|

Verse Riff 1
e----------------------------------------------------------------|
B----------------------------------------------------------------|
G----------------------------------------------------------------|
D----5----5-5-6-------------------------5-4---5-6-6-----------6--|
A----5----5-5-6-------------------------5-4---5-6-6-----------6--|
E----3-0--3-3-4-------------------------3-2-0-3-4-4-----------4--|

Verse Riff 2
e---------------------------------------------------------|
B---------------------------------------------------------|
G---------------------------------------------------------|
D----5----5-5-6------------------5-4---5-6-6-----------6--|
A----5----5-5-6------------------5-4---5-6-6-----------6--|
E----3-0--3-3-4-0000000000000000-3-2-0-3-4-4--00000000-4--|

Verse Riff 2 Break
e-----------------------------------------|
B-----------------------------------------|
G-----------------------------------------|
D----4----6----5----7----4----6----6------|
A----4----6----5----7----4----6----6------|
E----2----4----3----5----2----4----4------|

Chorus
e-------------------------------------------|
B-------------------------------------------|
G-------------------------------------------|
D----4-----7-----4-----4--5--5--4-------4---|  X2
A----4-----7-----4-----4--5--5--4-------4---|
E----2-----5-----2-----2--3--3--2-----2-2---|

Bridge
e--------(-----------------)------------------|
B--------(-----------------)------------------|
G--------(-----------------)------------------|
D----2---(-----------------)--X17-------------|
A----2---(-----------------)------------------|
E----0---(-0-0-0-0-0-0-0-0-)------------------|

e------(---------------------------------)----|
B------(---------------------------------)----|
G------(---------------------------------)----|
D----9\(5---5---5---5-6--5---5---5---5-4-)-X4-|
A----9\(5---5---5---5-6--5---5---5---5-4-)----|
E----7\(3-0-3-0-3-0-3-4--3-0-3-0-3-0-3-2-)----|
                                            .   .   .
SOLO

Ending
e---------------------------------------------|
B---------------------------------------------|    * Bend Chord
G-----------------9--11*----------------------|
D----9-----7------9--11*----------------------|
A----9-----7------7--9*-----------------------|
E----7-0-0-5-0-1------------------------------|


Form

Riff 1
Break
Verse Riff 1
Verse Riff 2
Verse Riff 2 Break
Chorus
Riff 1
Verse Riff 2         X2
Verse Riff 2 Break
Chrous
Bridge
Solo
Chorus               X2
Ending
            
Hard to play? Try these video lessons and learn fast. | Correct




comments powered by Disqus
↑ Back to top | Tablatures and chords are parodies/interpretations of the original songs. You may use it for private study, scholarship, research or language learning purposes only