» » »

Fucking With Fire Hair Force One Tabs (ver.1)

Artists:  A B C D E F G H I J K L M N O P Q R S T U V W X Y Z # 

Fucking With Fire Hair Force One Tabs (ver.1)

Edguy
Rating:
3/5 (3 votes)

Hard to play? Try these video lessons and learn fast.
                

eb tunning.

I updated the intro and the chorus.
A part of the song is not transcribed, the solo and the bridge........ Help me.
And make corrections if you can!

------------------------------------------------------------------------------
---------------------------------------------------3--------------------------
------------------------------------------------2--0--3-----------------------
-----2---0h2---/7-5--5-2*-----------2-2--0h2p0--2--0--2--2--------------------
-----2---0h2---/7-5--5-2*-----------2-2--0h2p0--0--x--0--2--------------------
-0---0-----------------0---0-3p0----0-0------------3-----0--------------------
 guitar 1 intro                                            repeat x2          

------------------------------------------------------------------------------
------------------------------------------------------------------------------
------------------------------------------------------7--9/-------------------
------------------------------9/----------------7--5--7--9/-------------------
------------------------------9/----------------7--5--5--7/-------------------
------------------------0-0-0-7/----------------5--3--------------------------
 guitar 2 intro        pm----                                                 

------------------------------------------------------------------------------
-------------------------------------------------3----------------------------
-----------------------------------------------2-0----------------------------
-2-2---0h2---/7-5--5-2----------2-2--0h2p0-----2-0-4--------------------------
-2-2---0h2---/7-5--5-2----------2-2--0h2p0-----0-x-4--------------------------
-0-0---------------------0-3p0--0-0--------------3-2--------------------------
 guitar 1 and 2                                                               

------------------------------------------------------------------------------
--------------------------------------------3---------------------------------
------------------------------------------2-0--7-7--9/------------------------
-2-2---0h2---/7-5--5-2---------2-2--0h2---2-0--7-7--9/------------------------
-2-2---0h2---/7-5--5-2---------2-2--0h2---0-x--5-5--7/------------------------
-0-0--------------------0-3p0--0-0----------3---------------------------------
 guitar 1 and 2                                                               

------------------------------------------------------------------------------
------------------------------------------------------------------------------
-12----------------7------------------9---------------------------------------
-12----------------7------------------9---------------------------------------
-10----------------5------------------7---------------------------------------
------------------------------------------------------------------------------
 00:36 witohut distortion (you can hear this way on live version)             

------------------------------------------------------------------------------
------------------------------------------------------------------------------
-12----------------7------------------9------------------12---7---------------
-12----------------7------------------9------------------12---7---------------
-10----------------5------------------7------------------10---5---------------
------------------------------------------------------------------------------
                         00:48 guitar 1                                       

------------------------------------------------------------------------------
------------------------------------------------------------------------------
--------------------------------------------------------------7v--------------
--------------------------------------2-2--0h2--2-------/5v---7v--------------
--------------------------------------2-2--0h2--2-------/5v-------------------
--------------------------------------0-0-------------------------------------
                        00:48 guitar 2          let ring       x2             

------------------------------------------------------------------------------
------------------------------------------------------------------------------
--5---------------------------------------------------------------------------
--5-----2-2--0h2---/7-5--5--2-------------------------------------------------
--3-----2-2--0h2---/7-5--5--2-------------------------------------------------
--------0-0----------------------0-3p0----------------------------------------
 01:03                                                                        

------------------------------------------------------------------------------
------------------------------------------------------------------------------
--2------------4-------5/-----------------------------------------------------
--2------------4-------5/-----------------------------------------------------
--0----0-3p0---2-------3/-----------------------------------------------------
------------------------------------------------------------------------------
                                                                              

------------------------------------------------------------------------------
---------------------------------------------------------3-3--3-3-------------
-----------------------5---5----------------------5--5---0-0--2-2-------------
--------------2----x---5---5---0----x--2----2-2-x-5--5---0-0--0-3-------------
--5-5-5-------2----x---3---3---0----x--2----2-2-x-3--3---x-x------------------
--3-3-2-------0----x----------------x--0----0-0-x--------3-3------------------
  chorus "f**king with fire......"                                x2          

------------------------------------------------------------------------------
------------------------------------------------------------------------------
--------5-5-5-5-5-5-5-5-4-----------------------------------------------------
--------5-5-5-5-5-5-5-5-4-----------------------------------------------------
--------3-3-3-3-3-3-3-3-2-----------------------------------------------------
------------------------------------------------------------------------------
 01:31   pm------------                                                       
            
Hard to play? Try these video lessons and learn fast. | Correct




comments powered by Disqus
↑ Back to top | Tablatures and chords are parodies/interpretations of the original songs. You may use it for private study, scholarship, research or language learning purposes only