» » »

Edge Of Sanity, Black Tears Tabs (ver.4)

Artists:  A B C D E F G H I J K L M N O P Q R S T U V W X Y Z # 

Black Tears Tabs (ver.4)

Edge Of Sanity Tabs
 Rating:
3.7/5 (6 votes)
Black Tears lessons Tabs too difficult? Try these video lessons and learn fast
1
                                         EDGE OF SANITY - BLACK TEARS
                      From the Album Purgatory Afterglow
                     Copyright 1994 Black Mark Production
                           Version 2.0 - July 1999

For questions, comments, corrections or newest version please contact Mathias

This tab made possible by an Elite Member of  s Death Tab!!!
Check out 's web page, with more trancriptions on it:
               

. - palm mute
~ - vibrato


Tuning: E


Riff A - 3 times

|-----------------------------------|
|-----------------------------------|
|-12-11-9----9-9~--------12-11-9----| Guitar I 
|---------12------7-9-7----------12-|
|-----------------------------------|
|-----------------------------------|
|
|
|
|-----------------------------------|
|-----------------------------------|
|-----------------------------------| Guitar II
|-9---------------5-------5---------|
|-7---------------3-------7---------|
|-----------------------------------|


Riff B - 1 time

|------------------------|
|------------------------|
|------------------------| Guitar I
|-9-7---------9-9-7------|
|------10-9---------10-9-|
|------------------------|
|
|
|
|------------------------|
|------------------------|
|------------------------| Guitar II
|-7------------5---------|
|-5------------3---------|
|------------------------|

Repeat Riff A 3 times
Repeat Riff B 1 time

Riff C

|--------------------------------------------------------|
|--------------------------------------------------------|
|--------------------------------------------------------| Guitar I & II
|----------4--4--4-----------4--4--4-----------4--4--4---|
|-2--2--2--22222222-2--2--2--22222222-22222222-22222222--|
|-00000000----------00000000----------0--0--0------------|
   .. .. .  .. .. .  .. .. .  .. .. .  .. .. .  .. .. .


Fill

|---0------0---|
|-----0------0-|
|--------------| Guitar I
|-2------4-----|
|-0------2-----|
|--------------|
|
|
|--------------|
|--------------|
|--------------| Guitar II
|-2------4-----|
|-0------2-----|
|--------------|


Repeat Riff C
Repeat Fill
Repeat Riff A 3 times
Repeat Riff B 1 time
Repeat Riff C
Repeat Fill

Riff D - 3 times

|----------------------------|
|----------------------------|
|----------------------------| Guitar I & II
|-9-9--7-7--5-5--5-5-5-5-5-5-|
|-7-7--5-5--3-3--3-3-3-3-3-3-|
|----------------------------|
|                . . . . . .



Riff E - 1 time

|----------------------|
|----------------------|
|----------------------| Guitar I & II
|----------------------|
|-5-5-5-5-5-5-5-5--7-7-|
|-3-3-3-3-3-3-3-3--5-5-|
  . . . . . . . .

Repeat Riff A 3 times
Repeat Riff B 1 time


Riff F - 3 times

|-------------------------------|
|-------------------------------|
|-------------------------------| Guitar I & II
|-----------------4-4-4-4-4-7-9-|
|-2-2-2-2-2-2-2-2-2-2-2-2-2-5-7-|
|-0-0-0-0-0-0-0-0---------------|
| . . . . . . . . . . . . .

Repeat Fill
Repeat Riff F 3 times
Repeat Fill
Repeat Riff D 3 times
Repeat Riff E 1 times
Repeat Riff A 3 times & Riff B 1 time until your fingers bleed
Solo over that
            
Submit corrections

comments powered by Disqus
↑ Back to top | Edge Of Sanity Tabs for Black Tears. Lyrics for acoustic guitar and electric guitar. 1 Tablatures and chords are parodies/interpretations of the original songs. You may use it for private study, scholarship, research or language learning purposes only