» » »

Edge Of Sanity, Black Tears Tabs (ver.3)

Artists:  A B C D E F G H I J K L M N O P Q R S T U V W X Y Z # 

Black Tears Tabs (ver.3)

Edge Of Sanity Tabs
Rating:
0/5 (0 votes)
Black Tears lessons Tabs too difficult? Try these video lessons and learn fast
                Copyright (c) Black Mark, 1994
[GUITAR TAB]

Version 8.71-August 19, 2003
Version 9.99-January 11, 2011


*-Stop riff quickly with palm                 #-Lightly pick
.-Palm mute                                   @-Let ring
/-Slide up                                    h-Hammer-on
\-Slide down                                  p-Pull-off
^-Bend                                        hp-Hammer-on then pulloff
t-Tap                                         ^h-Half-bend
^f-Full-bend                                  ^q-Quarter bend
\tr-Tremelo bar dip down                      ~-Vibrato
/tr-Tremelo bar bend up                       ()-Ghost note, sustained note
<>-Trill                                      "-Tremelo note

Standard Tuning:
E A D G B e

LISTEN TO THE SONG FOR TIMING.

RIFF: A
Chorus/Intro

(Lead) repeat x3


-----------------------------|
--3-2-------------------2----|
------4-2-4-2-----2---2---2--|
--------------2-4---4--------|
-----------------------------|
-----------------------------|

(Rhythm)

----------------------------------------------------|
----------------------------------------------------|
----------------------------------------------------|
--4*--4------------4*--4------------4*--4-----------|
--2*--2----5----7--2*--2----5----7--2*--2----5----7-|
-----------3----5-----------3----5-----------3----5-|

(Lead) End Repetition

---------------------|
---------------------|
---------------------|
---------------------|
---7-5-4---7-7-5-4---|
---------7---------7-|

(Rhythm) *Lightly pick*
--------------|
--------------|
--------------|
--------------|
---5-5--5-7-7-|
---3-3--3-5-5-|

(End the end bar of the second repeat of RIFF:A (Intro only))

(Rhythm) *Lightly pick*
------------------|
------------------|
------------------|
------------------|
---5-5--5-7-7--7*-|
---3-3--3-5-5--5*-|

||||||||||||||||||||||||||||||

RIFF: B
(Rhythm/Lead)

---------------------------------------------------------------|
---------------------------------------------------------------|
--------4-4-4--------4-4-4--------4-4-4--4-4-4----0@------0@---|
--------2-2-2--------2-2-2--------2-2-2--2-2-2----4@------4@---|
--2-2-2--------2-2-2--------2-2-2---------------5-------7------|
--0-0-0--------0-0-0--------0-0-0---------------3----3--5----5-|
.......................................

||||||||||||||||||||||||||||||

RIFF: C
(Rhythm/Lead)

----------------------------------------------------------------|
----------------------------------------------------------------|
----------------------------------------------------------------|
--4--------------------4--------------------4-------------------|
--2--7--5-5#-5#-5#-5#--2--7--5-5#-5#-5#-5#--2--7--5-5#-5#-5#-5#-|
-----5--3-3#-3#-3#-3#-----5--3-3#-3#-3#-3#-----5--3-3#-3#-3#-3#-|

--------------------|
--------------------|
--------------------|
--------------------|
--5-5-5-5-5-5-5-5-4-|
--3-3-3-3-3-3-3-3-2-|
....................

||||||||||||||||||||||||||||||

RIFF: D
(Lead)

---------------------------------------------------------------------|
---------------------------------------------------------------------|
------------------4*----------------------4*----------------------4*-|
------------------2*----------------------2*----------------------2*-|
--2-2-2-2-2-2-2-2-----5-5-2-2-2-2-2-2-2-2-----5-5-2-2-2-2-2-2-2-2----|
--0-0-0-0-0-0-0-0-----3-3-0-0-0-0-0-0-0-0-----3-3-0-0-0-0-0-0-0-0----|
.................         ...............         ...............


-----------------|
-----------------|
----0@------0@---|
----4@------4@---|
--5-------7------|
--3----3--5----5-|

(Rhythm)

----------------------------------------------------------------------|
----------------------------------------------------------------------|
----------------------------------------------------------------------|
----------------------------------------------------------------------|
--2-2-2-2-2-2-2-2-2-2-2-5-5-2-2-2-2-2-2-2-2-2-2-2-5-5-2-2-2-2-2-2-2-2-|
--0-0-0-0-0-0-0-0-0-0-0-3-3-0-0-0-0-0-0-0-0-0-0-0-0-0-0-0-0-0-0-0-0-0-|
.......................     .....................     ...............

-----------------|
-----------------|
----0@------0@---|
----4@------4@---|
--5-------7------|
--3----3--5----5-|

||||||||||||||||||||||||||||||

GUITAR SOLO:
(Rhythm)

--12t12t10-13t12t10-12t12t10----------13t12t10-|
-----------------------------12t12t10----------|
-----------------------------------------------|
-----------------------------------------------|
-----------------------------------------------|
-----------------------------------------------|

----------12t12t10-13t12t10-|
-12t12t10-------------------|
----------------------------|
----------------------------|
----------------------------|
----------------------------|

-----------13t11t10-13t11t10-13t11t10-|
--12t12t10----------------------------|
--------------------------------------|
--------------------------------------|
--------------------------------------|
--------------------------------------|


-------------------12t12t10-13t12t10-13t13t10-|
-12t12t10-12t12t10----------------------------|
----------------------------------------------|
----------------------------------------------|
----------------------------------------------|
----------------------------------------------|

Part 2 of the solo

--12-14^h-14^f-14^f-14^f-14^f----------------14-15^h-14h15-|
------------------------------15-14-------14---------------|
------------------------------------16-14------------------|
-----------------------------------------------------------|
-----------------------------------------------------------|
-----------------------------------------------------------|

---------------------------15^h-15^h-15^h-15^h-15^h-19-24ah^h-24ah^h-24ah^f-|
--12^h-12^h-12^h-12^h-12^h--------------------------------------------------|
----------------------------------------------------------------------------|
----------------------------------------------------------------------------|
----------------------------------------------------------------------------|
----------------------------------------------------------------------------|

-20-21\17-21\17-21\17-21\17-21\9-|
---------------------------------|
---------------------------------|
---------------------------------|
---------------------------------|
---------------------------------|

--21----------21-------------------------21--------------------------|
-----21----------21-------21-------21-------21-------21----21--------|
--------21-20-------21-20----21-21----20-------21-20----20----21-18@-|
---------------------------------------------------------------------|
---------------------------------------------------------------------|
---------------------------------------------------------------------|
---------------------------------------------------------------------|

.Palm mute the last note for lead to stop the ringing(Listen for timing)
\tremelo dip rhythm, to end the song

||||||||||||||||||||||||||||||


And thanks to Edge of Sanity for writing this amazing song.


Do NOT use this TAB on your site without my permission.
            
Submit corrections

comments powered by Disqus
↑ Back to top | Edge Of Sanity Tabs for Black Tears. Lyrics for acoustic guitar and electric guitar. Tablatures and chords are parodies/interpretations of the original songs. You may use it for private study, scholarship, research or language learning purposes only