>
 >
Society

Society Guitar Tabs

Eddie Vedder - Society chords, tabs, tablatures, lyrics

Guitar lessons | Add/correct | Request | Top 50 tabs Artists:  A B C D E F G H I J K L M N O P Q R S T U V W X Y Z 0-9

Society Guitar Tabs – Eddie Vedder

CD, Sheet music, Poster

Do you like Society? Share with your friends now
ChordsChords v2Chords v3Chords v4Chords v5Chords v6TabsTabs v2Tabs v3Ukulele
SOCIETY “INTO THE WILD”
CAPO 2


C	    G	          Am	      C
Well it’s a mystery to me, we have agreed
 F  		G	  	    F
Witch we had agreed. And you think you
	G			Am	F
have to want more then you need. ‘Till you
	G		Am
have it all you won’t be free.

         F			C
Society, you crazy breed
		   G		Am
I hope you’re not lonely… without me

                        C                        G
When you want more then you have,
                          Am      		C
You think you need. And when you think more
	      F				G
Then you want you’re thought will began to bleed.
F 		G		Am
I think I need to find a bigger place,
		   F			G
cause when you have more then you think
		Am
you need more space

       F			C
Society, you crazy breed
		G			Am
I hope you’re not lonely… without me
       F		        C
Society, crazy indeed
		G			Am
Hope you’re not lonely… without me


SOLO:


---------------------------------------------------|
---------------------------------------------------|
--------5-55--77----5-7-9---5-9-12-12/14-14-12-----|
---5h7---------------------------------------------|
---------------------------------------------------|
---------------------------------------------------|

-----------------------------------------------------|
-----------------------------------------------------|
---7-9-10—9-7—5h7-9-99--7-5--------5-5-7-77-5--------|
-------------------------------7—5h7------------7----|
-----------------------------------------------------|
-----------------------------------------------------|

----------------------------------------------------|
----------------------------------------------------|
---9-10—10-10-10-9-9-9--9-9--7-5-7-7-7-5------------|
--------------------------------------------7-------|
----------------------------------------------------|
----------------------------------------------------|


Am                       G                     Am
Is dorms thinking more less less is more
                        C     F                           G
But if less is more, how you keeping score?
           		F		G			Am
Means for every point you make you’re level drop
 C		G		Am
Kinda like a stunt from the top…. You cant do that

F			C
Society, you’re a crazy breed

 G 			               Am
I hope you’re not lonely… without me
F		C
Society, crazy indeed
G		                           Am
Hope you’re not lonely…. Without me
F                        C
Society, have mercy on me
G				Am
I hope you’re not angry… if I disagree
F                      Am
Society, crazy indeed
G						Am
Hope you’re not lonely………………….Without me





Comments


Popular Eddie Vedder tabs & chords
Goodbye 1 Chords
Here's To The State Chords
Rise Chords Chords
Society 4 Chords
When It All Got Good Chords
Setting Forth Intro Tabs
Better Days Ukulele
I Am A Patriot Ukulele
Sitting By The Fire Ukulele
Sleeping By Myself Ukulele


Song lyrics



↑ Back to top | Tablatures and chords are parodies/interpretations of the original songs. You may use it for private study, scholarship, research or language learning purposes only
© 2014 AZChords.com Contact us | Privacy policy | DMCA | Add/correct tabs | Request tabs | Top 50 tabs