>
 >
Guaranteed 1

Guaranteed 1 Guitar Tabs

Eddie Vedder - Guaranteed 1 chords, tabs, tablatures, lyrics

Guitar lessons | Add/correct | Request | Top 50 tabs Artists:  A B C D E F G H I J K L M N O P Q R S T U V W X Y Z 0-9

Guaranteed 1 Guitar Tabs – Eddie Vedder

CD, Sheet music, Poster

Do you like Guaranteed 1? Share with your friends now
ChordsTabsTabs v2Ukulele
Eddie Vedder - Guaranteed  

   G                                Bm                             
|--3--------3-----3--------3-----|--2--------2-----2--------2-----|
|-------3-------3------3-------3-|-------3-------3------3-------3-|
|-----4-------4------4-------4---|-----4-------4------4-------4---|
|--5------5-------5------5-------|--4------4-------4------4-------|
|--------------------------------|--------------------------------|
|--------------------------------|--------------------------------|

   G7                               C/E                             
|--1--------1-----1--------1-----|--0--------0-----0--------0-----|
|-------3-------3------3-------3-|-------1-------1------1-------1-|
|-----0-------0------0-------0---|-----0-------0------0-------0---|
|--3------3-------3------3-------|--2------2-------2------2-------|
|--------------------------------|--------------------------------|
|--------------------------------|--------------------------------|

   C                                G                              
|--0--------0-----0--------0-----|--3--------3-----3--------3-----|
|-------1-------1------1-------1-|-------0-------0------0-------0-|
|-----0-------0------0-------0---|-------------0--------------0---|
|--------------------------------|-----0--------------0-----------|
|--3------3-------3------3-------|--------------------------------|
|--------------------------------|--3------3-------3------3-------|

   D              Dsus2             D                 
|--2--------2-----0--------0-----|--0h-2-------2-------2-|
|-------3-------3------3-------3-|---------3-------3---3-|
|-----2-------2------2-------2---|-------2-------2-----2-|
|--0------0-------0------0-------|--0--------0---------0-|
|--------------------------------|-----------------------|
|--------------------------------|-----------------------|

   G                                Bm                             
|--3--------3-----3--------3-----|--2--------2-----2--------2-----|
|-------3-------3------3-------3-|-------3-------3------3-------3-|
|-----4-------4------4-------4---|-----4-------4------4-------4---|
|--5------5-------5------5-------|--4------4-------4------4-------|
|--------------------------------|--------------------------------|
|--------------------------------|--------------------------------|
       On bended knee is no             way to be free
   G7                               C/E                             
|--1--------1-----1--------1-----|--0--------0-----0--------0-----|
|-------3-------3------3-------3-|-------1-------1------1-------1-|
|-----0-------0------0-------0---|-----0-------0------0-------0---|
|--3------3-------3------3-------|--2------2-------2------2-------|
|--------------------------------|--------------------------------|
|--------------------------------|--------------------------------|
       Lifting up an empty cup,       I ask silently
   C                                G                              
|--0--------0-----0--------0-----|--3--------3-----3--------3-----|
|-------1-------1------1-------1-|-------0-------0------0-------0-|
|-----0-------0------0-------0---|-------------0--------------0---|
|--------------------------------|-----0--------------0-----------|
|--3------3-------3------3-------|--------------------------------|
|--------------------------------|--3------3-------3------3-------|
       All my destinations will	accept the one that’s me
   D              Dsus2             D                 (Dsus4 D5)    
|--2--------2-----0--------0-----|--0h-2-------2-------3-----5----|
|-------3-------3------3-------3-|---------3-------3---3-----3----|
|-----2-------2------2-------2---|-------2-------2-----2-----2----|
|--0------0-------0------0-------|--0--------0---------0-----0----|
|--------------------------------|--------------------------------|
|--------------------------------|--------------------------------|
	So I can breathe... 

   G                                Bm                             
|--3--------3-----3--------3-----|--2--------2-----2--------2-----|
|-------3-------3------3-------3-|-------3-------3------3-------3-|
|-----4-------4------4-------4---|-----4-------4------4-------4---|
|--5------5-------5------5-------|--4------4-------4------4-------|
|--------------------------------|--------------------------------|
|--------------------------------|--------------------------------|
     Circles they grow and they      swallow people whole
   G7                               C/E                             
|--1--------1-----1--------1-----|--0--------0-----0--------0-----|
|-------3-------3------3-------3-|-------1-------1------1-------1-|
|-----0-------0------0-------0---|-----0-------0------0-------0---|
|--3------3-------3------3-------|--2------2-------2------2-------|
|--------------------------------|--------------------------------|
|--------------------------------|--------------------------------|
Half their lives they say goodnight to wives they’ll never know
   C                                G                              
|--0--------0-----0--------0-----|--3--------3-----3--------3-----|
|-------1-------1------1-------1-|-------0-------0------0-------0-|
|-----0-------0------0-------0---|-------------0--------------0---|
|--------------------------------|-----0--------------0-----------|
|--3------3-------3------3-------|--------------------------------|
|--------------------------------|--3------3-------3------3-------|
   A mind full of questions,        and a teacher in my soul
   D              Dsus2             D                 (Dsus4 D5)    
|--2--------2-----0--------0-----|--0h-2-------2-------3-----5----|
|-------3-------3------3-------3-|---------3-------3---3-----3----|
|-----2-------2------2-------2---|-------2-------2-----2-----2----|
|--0------0-------0------0-------|--0--------0---------0-----0----|
|--------------------------------|--------------------------------|
|--------------------------------|--------------------------------|
     And so it goes...

   G                                Bm                             
|--3--------3-----3--------3-----|--2--------2-----2--------2-----|
|-------3-------3------3-------3-|-------3-------3------3-------3-|
|-----4-------4------4-------4---|-----4-------4------4-------4---|
|--5------5-------5------5-------|--4------4-------4------4-------|
|--------------------------------|--------------------------------|
|--------------------------------|--------------------------------|
   	Don’t come closer or 		I’ll have to go
   G7                               C/E                             
|--1--------1-----1--------1-----|--0--------0-----0--------0-----|
|-------3-------3------3-------3-|-------1-------1------1-------1-|
|-----0-------0------0-------0---|-----0-------0------0-------0---|
|--3------3-------3------3-------|--2------2-------2------2-------|
|--------------------------------|--------------------------------|
|--------------------------------|--------------------------------|
     Holding me like gravity		are places that pull
   C                                G                              
|--0--------0-----0--------0-----|--3--------3-----3--------3-----|
|-------1-------1------1-------1-|-------0-------0------0-------0-|
|-----0-------0------0-------0---|-------------0--------------0---|
|--------------------------------|-----0--------------0-----------|
|--3------3-------3------3-------|--------------------------------|
|--------------------------------|--3------3-------3------3-------|
     If ever there was someone        to keep me at home
   D              Dsus2             D                 
|--2--------2-----0--------0-----|--0h-2-------2-------2-|
|-------3-------3------3-------3-|---------3-------3---3-|
|-----2-------2------2-------2---|-------2-------2-----2-|
|--0------0-------0------0-------|--0--------0---------0-|
|--------------------------------|-----------------------|
|--------------------------------|-----------------------|
     It would be you...

  
 G                                Bm                             
|--3--------3-----3--------3-----|--2--------2-----2--------2-----|
|-------3-------3------3-------3-|-------3-------3------3-------3-|
|-----4-------4------4-------4---|-----4-------4------4-------4---|
|--5------5-------5------5-------|--4------4-------4------4-------|
|--------------------------------|--------------------------------|
|--------------------------------|--------------------------------|
    Everyone I come across,          in cages they bought
   G7                               C/E                             
|--1--------1-----1--------1-----|--0--------0-----0--------0-----|
|-------3-------3------3-------3-|-------1-------1------1-------1-|
|-----0-------0------0-------0---|-----0-------0------0-------0---|
|--3------3-------3------3-------|--2------2-------2------2-------|
|--------------------------------|--------------------------------|
|--------------------------------|--------------------------------|
They think of me and my wandering, but I’m never what they thought

   C                                G                              
|--0--------0-----0--------0-----|--3--------3-----3--------3-----|
|-------1-------1------1-------1-|-------0-------0------0-------0-|
|-----0-------0------0-------0---|-------------0--------------0---|
|--------------------------------|-----0--------------0-----------|
|--3------3-------3------3-------|--------------------------------|
|--------------------------------|--3------3-------3------3-------|
   I’ve got my indignation,        but I’m pure in all my thoughts
   D              Dsus2             D                 
|--2--------2-----0--------0-----|--0h-2-------2-------2-|
|-------3-------3------3-------3-|---------3-------3---3-|
|-----2-------2------2-------2---|-------2-------2-----2-|
|--0------0-------0------0-------|--0--------0---------0-|
|--------------------------------|-----------------------|
|--------------------------------|-----------------------|
   I’m alive...

   G                                Bm                             
|--3--------3-----3--------3-----|--2--------2-----2--------2-----|
|-------3-------3------3-------3-|-------3-------3------3-------3-|
|-----4-------4------4-------4---|-----4-------4------4-------4---|
|--5------5-------5------5-------|--4------4-------4------4-------|
|--------------------------------|--------------------------------|
|--------------------------------|--------------------------------|
	Wind in my hair,            I feel part of everywhere
   G7                               C/E                             
|--1--------1-----1--------1-----|--0--------0-----0--------0-----|
|-------3-------3------3-------3-|-------1-------1------1-------1-|
|-----0-------0------0-------0---|-----0-------0------0-------0---|
|--3------3-------3------3-------|--2------2-------2------2-------|
|--------------------------------|--------------------------------|
|--------------------------------|--------------------------------|
  Underneath my being is a          road that disappeared 
   C                                G                              
|--0--------0-----0--------0-----|--3--------3-----3--------3-----|
|-------1-------1------1-------1-|-------0-------0------0-------0-|
|-----0-------0------0-------0---|-------------0--------------0---|
|--------------------------------|-----0--------------0-----------|
|--3------3-------3------3-------|--------------------------------|
|--------------------------------|--3------3-------3------3-------|
Late at night I hear the trees, they’re singing with the dead
   D              Dsus2             D                 (Dsus4 D5)    
|--2--------2-----0--------0-----|--0h-2-------2-------3-----5----|
|-------3-------3------3-------3-|---------3-------3---3-----3----|
|-----2-------2------2-------2---|-------2-------2-----2-----2----|
|--0------0-------0------0-------|--0--------0---------0-----0----|
|--------------------------------|--------------------------------|
|--------------------------------|--------------------------------|
     Overhead...

   G                                Bm                             
|--3--------3-----3--------3-----|--2--------2-----2--------2-----|
|-------3-------3------3-------3-|-------3-------3------3-------3-|
|-----4-------4------4-------4---|-----4-------4------4-------4---|
|--5------5-------5------5-------|--4------4-------4------4-------|
|--------------------------------|--------------------------------|
|--------------------------------|--------------------------------|
    Leave it to me as I              find a way to be
   G7                               C/E                             
|--1--------1-----1--------1-----|--0--------0-----0--------0-----|
|-------3-------3------3-------3-|-------1-------1------1-------1-|
|-----0-------0------0-------0---|-----0-------0------0-------0---|
|--3------3-------3------3-------|--2------2-------2------2-------|
|--------------------------------|--------------------------------|
|--------------------------------|--------------------------------|
    Consider me a satellite,          forever orbiting
   C                                G                              
|--0--------0-----0--------0-----|--3--------3-----3--------3-----|
|-------1-------1------1-------1-|-------0-------0------0-------0-|
|-----0-------0------0-------0---|-------------0--------------0---|
|--------------------------------|-----0--------------0-----------|
|--3------3-------3------3-------|--------------------------------|
|--------------------------------|--3------3-------3------3-------|
    I knew all the rules, but the rules did not know me
   D              Dsus2             D                 (Dsus4 D5)    
|--2--------2-----0--------0-----|--0h-2-------2-------3-----5----|
|-------3-------3------3-------3-|---------3-------3---3-----3----|
|-----2-------2------2-------2---|-------2-------2-----2-----2----|
|--0------0-------0------0-------|--0--------0---------0-----0----|
|--------------------------------|--------------------------------|
|--------------------------------|--------------------------------|
   Guaranteed...

   G                                Bm                             
|--3--------3-----3--------3-----|--2--------2-----2--------2-----|
|-------3-------3------3-------3-|-------3-------3------3-------3-|
|-----4-------4------4-------4---|-----4-------4------4-------4---|
|--5------5-------5------5-------|--4------4-------4------4-------|
|--------------------------------|--------------------------------|
|--------------------------------|--------------------------------|
   Hum…………………………………………………………………………………………………………………………………………………				
   G7                               C/E                             
|--1--------1-----1--------1-----|--0--------0-----0--------0-----|
|-------3-------3------3-------3-|-------1-------1------1-------1-|
|-----0-------0------0-------0---|-----0-------0------0-------0---|
|--3------3-------3------3-------|--2------2-------2------2-------|
|--------------------------------|--------------------------------|
|--------------------------------|--------------------------------|
   Hum…………………………………………………………………………………………………………………………………………………	
   C                                G                              
|--0--------0-----0--------0-----|--3--------3-----3--------3-----|
|-------1-------1------1-------1-|-------0-------0------0-------0-|
|-----0-------0------0-------0---|-------------0--------------0---|
|--------------------------------|-----0--------------0-----------|
|--3------3-------3------3-------|--------------------------------|
|--------------------------------|--3------3-------3------3-------|
   Hum…………………………………………………………………………………………………………………………………………………	
   D              Dsus2             D                         Dsus4
|--2--------2-----0--------0-----|--0h-2------------2-----------3-|
|-------3-------3------3-------3-|-------------3-----------3----3-|
|-----2-------2------2-------2---|---------2-----------2--------2-|
|--0------0-------0------0-------|--0-------------0-------------0-|
|--------------------------------|--------------------------------|
|--------------------------------|--------------------------------|
   Hum…………………………………………………………………………………………………………………………………………………	





Comments


Popular Eddie Vedder tabs & chords
Dont Cry No Tears Chords
Far Behind Chords
Hide Your Love Away 1 Chords
Setting Forth Chords
No Ceiling Intro Tabs
Society Intro Tabs
Tuolumne 3 Tabs
Without You Tabs
Heres To The State Ukulele
No Ceiling Ukulele


Song lyrics



↑ Back to top | Tablatures and chords are parodies/interpretations of the original songs. You may use it for private study, scholarship, research or language learning purposes only
© 2014 AZChords.com Contact us | Privacy policy | DMCA | Add/correct tabs | Request tabs | Top 50 tabs