» » »

Burnt Tabs (ver.1)

Artists:  A B C D E F G H I J K L M N O P Q R S T U V W X Y Z # 

Burnt Tabs (ver.1)

Econoline Crush
Rating:
0/5 (0 votes)

Hard to play? Try these video lessons and learn fast.
                

tab attached

Okay I made a few improvments that should bring this up to the OLGA's standards
I've Added Lyrics and Checked to make sure there are no more than 80 columns
I hope that does it for you.
"Burnt" by Econoline Crush

Settings for equipment:
Dropped D Tuning
Peavey Rage 158 Channel=lead gain Superstat = 2.7 Low =0 Mid=2 High=4.5
When you see a ! add a Boss Distortion DS-1 Tone=7 Dist=0 and a * means turn it off.
(This is just how I do it with my limited equipment)
Part One:
---------------------------------------------------------!-----------------*-|
---------------------------------------------------------!-----------------*-|
---------------------------------------------------------!-----------------*-|x2
-0-0-10-0-0-12-0-0-10-0-0-12-12-0-0-10-0-0-10-0-0-12-0-0-!-5-6-6-6-5-6-6-6-*-|
-0-0-10-0-0-12-0-0-10-0-0-12-12-0-0-10-0-0-10-0-0-12-0-0-!-5-6-6-6-5-6-6-6-*-|
-0-0-10-0-0-12-0-0-10-0-0-12-12-0-0-10-0-0-10-0-0-12-0-0-!-5-6-6-6-5-6-6-6-*-|
End Part One.
Part two:
---------------------------------------------------------------------------*-|
---------------------------------------------------------------------------*-|
---------------------------------------------------------------------------*-|
-----------------------------------------------------------5-6-6-6-5-6-6-6-*-|
-----------------------------------------------------------5-6-6-6-5-6-6-6-*-|
-0-0-10-0-0-12-0-0-10-0-0-12-12-0-0-10-0-0-10-0-0-12-0-0-!-5-6-6-6-5-6-6-6-*-|
End Part two.
Part Three:
---------------------------------------------|
---------------------------------------------|
---------------------------------------------|
-0-0-0-0-3-3-3/5-5-5-5-0-0-0-0-3-3-3/5-5-5-5-|
-0-0-0-0-3-3-3/5-5-5-5-0-0-0-0-3-3-3/5-5-5-5-|
-0-0-0-0-3-3-3/5-5-5-5-0-0-0-0-3-3-3/5-5-5-5-|

----------------------------------------------|
----------------------------------------------|
----------------------------------------------|
-0-0-0-0-3-3-3/5-5-5-5-0-0-0-0-3-3-3/5-5-5-5--|
-0-0-0-0-3-3-3/5-5-5-5-0-0-0-0-3-3-3/5-5-5-5--|
-0-0-0-0-3-3-3/5-5-5-5-0-0-0-0-3-3-3/5-5-5-5--|
End Part three.
Part Four:
!--------------------------|
!--------------------------|
!-/7-/9-2-/7-/7-/9-/12-/14-|
!--------------------------|
!--------------------------|
!--------------------------|
End part four.
Part five:
-------------------|
-------------------|
-------------------|
-0-0-0-0-3-3-3-3/5-|
-0-0-0-0-3-3-3-3/5-|
-0-0-0-0-3-3-3-3/5-|
End part five.
Part six (solo):
!------------------------------------10-13-|
!------------------------------10-13-------|
!------10----10----12----12----------------|
!12-14----12----12----12----12-------------|
!------------------------------------------|
!------------------------------------------|
End part six.
Part seven
!------------------------|
!------------------------|
!-/7-/9-2-/7-------------|
!------------------------|
!------------------------|
!------------------------|
Part eight:
!------------|
!------------|
!-7-9-10-9-7-|
!------------|
!------------|
!------------|
Part eight (outro):
---------------!-------------|
---------------!-------------|
-/7-/9-/14-\12-!-------------|
---------------!-12-12-12-12-|
---------------!-12-12-12-12-|
---------------!-12-12-12-12-|
Mixed Intro
Part One x2
Part two x2
Part One x2
Part three
Part four
Part One x2
Part two x2
Part One x2
Part three
Part four
Part five x4
Part four
Part seven
Part seven x2 (part six x8)
Part eight (Outro)
-----------------------------------------------------------------------------
Well That's it Hope you enjoy it Feel free to add
your own improved versions of the song.
I plan to post more Econoline Crush stuff on the OLGA

Lyrics (In Order all the Way through)

Slow burn decay
nothing beats a fade
not like i'd know
not like it'd show
not like i'd ever be the same

I don't care
I don't care
I don't care

I miss the secrets shared with you
I miss the innocence of youth
I always thought we'd have it all
Nobody can change a thing
nobody can mend the pain of you

cold blank stare
empty and bare
someone i knew
someone like you
someone i'll never see again

I don't care
I don't care
I don't care

I miss the secrets shared with you
I miss the innocence of youth
I always thought we'd have it all
Nobody can change a thing
Nobody can mend the pain of you

I don't care

I don't care
I don't care
I don't care

I miss the secrets shared with you
I miss the innocence of youth
I always thought we'd have it all
Nobody can change a thing
nobody can mend the pain of you

I miss the secrets shared with you
I miss the innocence of youth
I always thought we'd have it all
Nobody can change a thing
nobody can mend the pain of you
            
Hard to play? Try these video lessons and learn fast. | Correct




comments powered by Disqus
↑ Back to top | Tablatures and chords are parodies/interpretations of the original songs. You may use it for private study, scholarship, research or language learning purposes only