>
 >
All That You Are

All That You Are Guitar Tabs

Econoline Crush - All That You Are chords, tabs, tablatures, lyrics

Guitar lessons | Add/correct | Request | Top 50 tabs Artists:  A B C D E F G H I J K L M N O P Q R S T U V W X Y Z 0-9

All That You Are Guitar Tabs – Econoline Crush

CD, Sheet music, Poster

Do you like All That You Are? Share with your friends now
TabsTabs v2

Dropped D

Intro 1
e-----------------------------------------------------
B-----------------------------------------------------
G-6--6----------6--6----------------------------------
D-6--6-2-2-4-4--6--6-2-2-4-4--------------------------
A-4--4-2-2-4-4--4--4-2-2-4-4--------------------------
D------2-2-4-4-------2-2-4-4--------------------------

Intro 2
e-----------------------------------------------------
B-----5--------9--------5--------9--------------------
G-----------------------------------------------------
D---6--------9--------6--------9----------------------
A-4--------7--------4--------7------------------------
D-----------------------------------------------------

Verse 
e-----------------------------------------------------
B-----------------------------------------------------
G-6---9--11----6---11--9----6---9--11----6---11--9----
D-x---x---x----x----x--x----x---x---x----x----x--x----
A-4---7---9----4----9--7----4---7---9----4----9--7----
D-----------------------------------------------------
("Well if I said...")

Chorus A (Guitar 1)                     
e-----------------------------------------------------
B-----------------------------------------------------
G-----------------------------------------------------
D-7-------6------4-------2-2-2h4-4--------------------
A-7-(x8)--6-(x8)-4-(x8)--2-2-2h4-4-(x8)---------------
D-7-------6------4-------2-2-2h4-4--------------------
("Well it's all that you are...")

Chorus B (Guitar 2)
e-----------------------------------------------------
B---------5----------------5--------------------------
G-----------6----------------6------------3-4-3-------
D-----7-------7--------7-------7--------4-------4-----
A---7---7-------7----7---7-------7----4-----------4---
D-7----------------6----------------4---------------4-

(contined)
e-2-2-2-2--0-0-0-0------------------------------------
B-2-2-2-2--2-2-2-2------------------------------------
G-3-3-3-3--3-3-3-3------------------------------------
D-----------------------------------------------------
A-----------------------------------------------------
D-----------------------------------------------------

Fill
e-----------------------------------------------------
B-11-12-13^-13^-13^-13^-13^-13^-13^-13^---------------
G-----------------------------------------------------
D-----------------------------------------------------
A-----------------------------------------------------
D-----------------------------------------------------

Bridge
e-----------------------------------------------------
B----------------------------|______twice_______|-----
G-4--6--9--11---4--6--9--11--16-x-16-x-16-x-16-16-----
D-x--x--x---x---x--x--x---x---x-x--x-x--x-x--x--x-----
A-2--4--7---9---2--4--7---9--14-x-14-x-14-x-14-14-----
D-----------------------------------------------------

Solo
e-----------------------------------------------------
B-----------------------------------------------------
G-11h12p11-11-9-11-13-9----------------11h12p11-11-9--
D-----------------------11--9-9h11-11-----------------
A-----------------------------------------------------
D-----------------------------------------------------

(continued)
e-----------------------------------------------------
B-------------12^-12^---------------------------------
G-11-13-9--------------11h12p11-11-9-11-13-9----------
D---------11---------------------------------11--9h11-
A-----------------------------------------------------
D-----------------------------------------------------

(continued)
e-----------------------------------------------------
B-----------------------------------------------------
G-----11h12p11-11-9-11-13-9---------------------------
D-11------------------------11--9h11-11---------------
A-----------------------------------------------------
D-----------------------------------------------------

Fill 2
e-----------------------------------------------------
B-----------------------------------------------------
G-11^-11^-11^-11^-12^-12^-12^-12^-12^-12^-------------
D-----------------------------------------------------
A-----------------------------------------------------
D-----------------------------------------------------

Intro 1
Intro 2
Verse
Chorus A, B
Verse
Chorus A, B
Fill 1
Brigde
Bridge, Solo
Verse
Chorus A, B, Fill 2


================================================================

---------------------------------------------------

Howdy folks...i'm back once again to tab yet another great
E.C song.  The fun never ends.   I thought that i'd wait a 
while to see if anyone else was going to tab one of their songs, 
but i just got really impatient like the silly mofo that i am.

Anyways...this is a fairly simple song. Its tabbed in standard 
tuning and i hope i dont need to tell you what that means.  If I do, 
well...then you dont deserve to play guitar:)

Lets go,

Legend: b=bend
        s=slide

Intro

    C#7      F#5
e|---------------
B|---6-6-xxx-----
G|---4-4-xxx-----   play this four times
D|---6-6-xxx-4-4-
A|---4-4-xxx-4-4-
E|-----------2-4-


then play this over the first part

e|---------4-----
B|---------------
G|---4-4-3-------
D|-2-------------
A|---------------
E|---------------

Verse 1

     C#5     F#5
e|---------------
B|---------------
G|---6 6-xxx-----
D|---6-6-xxx-4-4-
A|---4-4-xxx-4-4-
E|-----------2-4-

if I said it I meant it

e|---------------
B|---------------
G|---6 6-xxx-----
D|---6-6-xxx-4-4-
A|---4-4-xxx-4-4-
E|-----------2-4-

I'm not really demented

e|---------------
B|---------------
G|---6 6-xxx-----
D|---6-6-xxx-4-4-
A|---4-4-xxx-4-4-
E|-----------2-4-

I'm just saying its been said again and again

e|---------------
B|---------------
G|---6 6-xxx-----
D|---6-6-xxx-4-4-
A|---4-4-xxx-4-4-
E|-----------2-4-

not that I'm all that grounded

e|---------------
B|---------------
G|---6 6-xxx-----
D|---6-6-xxx-4-4-
A|---4-4-xxx-4-4-
E|-----------2-4-

I'm already dumbfounded

e|---------------
B|---------------
G|---6 6-xxx-----
D|---6-6-xxx-4-4-
A|---4-4-xxx-4-4-
E|-----------2-4-

I'm a liar believe me baby


Chorus
     A5    G#5       F#5
e|----------------------------
B|----------------------------
G|----------------------------  X2 first time
D|-7-7-777-6-6-666-4-4-444----  X3 second time
A|-7-7-777-6-6-666-4-4-444----  X4 outro
E|-5-5-555-4-4-444-2-2-222----

Well thats all that you are, you're just one shining star

Verse 2 same as Verse 1 except lyrics

maybe everything's changed
and maybe I stayed the same
what does it matter to me now anyway?
if i ever regret it
if i'm ever repentant
karma sings and we dance the dance, baby

Chorus

Solo

e|-----------------7-7-7-77-7-7-7-77-----------------7-7-7-77-7-7-7-77-
B|-----5-7-----5-7-----------------------5-7-----5-7-------------------
G|-4-6-----4-6-----------------------4-6-----4-6-----------------------
D|---------------------------------------------------------------------
A|---------------------------------------------------------------------
E|---------------------------------------------------------------------

e|---------------------------------
B|---------------------------------
G|-11b11-9-11b-9-------------------
D|---------------11----9-11-11-----
A|------------------11-------------
E|---------------------------------

e|---------------------------------
B|--------------------9s12-12-9----
G|-11b11-9-11b-9-------------------
D|---------------11----------------
A|------------------11-------------
E|---------------------------------

e|---------------------------------------------------------------
B|---------------------------------------------------------------
G|-11b11-9-11b-9-----------------11b11-9-11b-9-------------------
D|---------------11----9-11-11-----------------11----9-11-11-----
A|------------------11----------------------------11-------------
E|---------------------------------------------------------------


Verse 3

same as Verse

Outro 

This is the layout of the entire song

Intro
Verse 1
Chorus
Verse 2
Chorus
Solo
Verse 3
Outro

Hope you like it, e-mail me if you have any suggestions.
====





Comments


Popular Econoline Crush tabs & chords
Close Bass Tabs
Close 1 Bass Tabs
Make It Right Bass Tabs
Affliction Tabs
Burnt 1 Tabs
Home Tabs
Make It Right Tabs
Razorblades And Bandaids Tabs
Sparkle And Shine Tabs
Surefire Tabs


Song lyrics



↑ Back to top | Tablatures and chords are parodies/interpretations of the original songs. You may use it for private study, scholarship, research or language learning purposes only
© 2014 AZChords.com Contact us | Privacy policy | DMCA | Add/correct tabs | Request tabs | Top 50 tabs