>
 >
Spoonfed

Spoonfed Bass Tabs

Echobrain - Spoonfed chords, tabs, tablatures, lyrics

Guitar lessons | Add/correct | Request | Top 50 tabs Artists:  A B C D E F G H I J K L M N O P Q R S T U V W X Y Z 0-9

Spoonfed Bass Tabs – Echobrain

CD, Sheet music, Poster

Do you like Spoonfed? Share with your friends now
Bass TabsTabs
================================================================================
                                E C H O B R A I N

                                       -

                                 S P O O N F E D
================================================================================


                                    ECHOBRAIN
		            (c) 2002 Surfdog Records


                            Standard Tuning [5-String]
                                    B E A D G


			          Tempo = 80 BPM
		               Time Signature = 4/4



                          -----------------------------

		                 PADDY MCMULLAN

                                   Version 1.0
                               22nd  January 2011
                             -----------------------

		             Tablature Symbols Used:


 h         -  Hammer-on
 *         -  Staccato Note (Bring the indicated note to an abrupt stop)
 p         -  Pull-off
 \         -  Slide Down to/Down From
 /         -  Slide Up to/Up From
 ( / )     -  Legato Slide
 ( )       -  Ghost Note/Tied Note/Implied Note
 REST      -  Rest, and sustain rest for duration of blank space
 |_3_|     -  Triplet Note(s)
 |------|  -  Let Notes Ring




================================================================================
Part 1:                                                 [ Time - 00:00 - 00:36 ]
================================================================================


  1                   2
||-------------------|----------------------------------|
||--R--            --|----------------------------------|
||--E--            --|--4--4-4-4---------- /6--6---4- \-|
||--S--            --|-----------6---------------6------|
||--T--            --|-------------7--7-7---------------|


 3
|--------------------------------------------|
|--------------------------------------------|
|--1--1-1h3- /(5/8)h10---10-10-10-10-8-------|
|--------------------------------------10-8\ |
|--------------------------------------------|


 4
|-------------------------------------|
|-------------------------------------|
|----------------------- /6--6-6-4 \1-|
|--(8/9)-9-9-7-4-2--2-2---------------|
|-------------------------------------|


 5
|-------------------------------------------|
|-------------------------------------------|
|--1--1-1h3-/(5/8)h10---10-10-10-10-8-------|
|-------------------------------------10-8\ |
|-------------------------------------------|


 6
|------------------------------------|
|------------------------------------|
|----------------------- /6----0-4 \ |
|--(8/9)-9-9-7-4-2--2-2--------------|
|------------------------------------|


 7
|-------------------------------------------|
|-------------------------------------------|
|--1--1-1h3-/(5/8)h10---10-10-10-10-8-------|
|-------------------------------------10-8\ |
|-------------------------------------------|


 8
|------------------------------------|
|------------------------------------|
|----------------------- /6----0-4 \ |
|--(8/9)-9-9-7-4-2--2-2--------------|
|------------------------------------|


 9
|-------------------------------------------|
|-------------------------------------------|
|--1--1-1h3-/(5/8)h10---10-10-10-10-8-------|
|-------------------------------------10-8\ |
|-------------------------------------------|

 10                                   11
|------------------------------------|--------------------------------|
|------------------------------------|--------------------------------|
|----------------------- /6----0-4 \ |--1--1-1-3p1--------------(1/3)-|
|--(8/9)-9-9-7-4-2--2-2--------------|-------------3--3-3--3-3--------|
|------------------------------------|--------------------------------|


 12
|-------------------------------||
|-------------------------------||
|--4--4-4-4 \1--------6------4--||
|--------------2---------6-6----||
|-----------------4-4-----------||



================================================================================
Part 2:                                                   [ Time 00:36 - 01:07 ]
================================================================================


||--------------------------|--------------------------|
||-------------*------------|-------------*------------|
||----*------6-6------6-4---|----*------6-6------4-----|
||--6-6---------------------|--6-6-----------------5---|
||--------------------------|--------------------------|


|----------------------------|----------------------------|
|----------------------------|----------------------------|
|----*--------*--------------|----*------4-*--------------|
|--4-4------3-3------3-2-- / |--6-6--------4------4-3-- / |
|----------------------------|----------------------------|


|------------------------------| |
|------------------------------|*|
|----*------4------------------| | x 2
|--6-6--------4--0- /4-6-4-3 / |*|
|------------------------------| |



================================================================================
Part 3:                                                   [ Time 01:07 - 01:25 ]
================================================================================


||--------------------------|---------------------------|
||--------------------------|---------------------------|
||--------------------------|---------------------------|
||--2--2--2--2--2--2--2--2--|--1--1--1--1--1--1--1--1 / |
||--------------------------|---------------------------|


|----------------------------|----------------------------|
|----------------------------|----------------------------|
|----*------4-*--------------|----*------4-*--------------|
|--6-6--------4------4-3-- / |--6-6--------4------4-3-- / |
|----------------------------|----------------------------|


|----------------------------|-------------------------------||
|----------------------------|-------------------------------||
|----*------4-*--------------|----*------4-----6-4-----------||
|--6-6--------4------4-3-- / |--6-6--------4-4-----6-4-3-- / ||
|----------------------------|-------------------------------||



================================================================================
Part 4:                                                   [ Time 01:25 - 02:01 ]
================================================================================


Repeat Part 2 twice, adding the following two bars to the end:


|--------------------------|--------------------------||
|--------------------------|--------------------------||
|--------------------------|--------------0--0--0--0--||
|--2--2--2--2--2--2--2--2--|--4--4--4--4--------------||
|--------------------------|--------------------------||



================================================================================
Part 5:                                                   [ Time 02:01 - 02:50 ]
================================================================================


  1
||-------------------------------------------|
||-------------------------------------------|
||--1--1-1h3- /(5/8)h10---10-10-10-10-10-----|
||---------------------------------------9-0-|
||-------------------------------------------|

 2                                   3
|-----------------------------------|--------------------------------|
|-----------------------------------|--------------------------------|
|--4--4-4------------- /6--6---4- \-|--1--1-1-3-1------------------2-|
|---------7-4 \2--2-2--------6------|-------------3--3-3-3-3-3-3-3---|
|-----------------------------------|--------------------------------|

 4                                 5
|---------------------------------|------------------------------|
|---------------------------------|------------------------------|
|--4--4-4------------ /6--6-0-4 \ |--1--1-1-3-1------------------|
|---------6-4-2--0-0--------------|-------------3--3--3--3-- /7--|
|---------------------------------|------------------------------|

 6                                 7
|---------------------------------|--------------------------------|
|---------------------------------|--------------------------------|
|------------------- /6----0--4 \ |--1--1-1-3-1--------------------|
|--9--9-9-4-4-2-2-2---------------|-------------3--3--3-3-3-3 /6-8-|
|---------------------------------|--------------------------------|

 8
|---------------------------------|
|---------------------------------|
|-------------------- /6--6-0-4 \ |
|--9--9-9-9-4-2--0-0--------------|
|---------------------------------|

 9
|--------------------------------------------|
|--------------------------------------------|
|--1--1-1h3- /(5/8)h10---10-10-10-10-8-------|
|--------------------------------------10-8\ |
|--------------------------------------------|

 10
|------------------------------------|
|------------------------------------|
|----------------------- /6--6-0-4 \ |
|--(7/9)-9-9-7-4-2--2-2--------------|
|------------------------------------|

 11
|--------------------------------------------|
|--------------------------------------------|
|--1--1-1h3- /(5/8)h10---10-10-10-10-8-------|
|--------------------------------------10-8\ |
|--------------------------------------------|

 12
|------------------------------------|
|------------------------------------|
|----------------------- /6--6-0-4 \ |
|--(7/9)-9-9-7-4-2--0-0--------------|
|------------------------------------|

 13
|--------------------------------------------|
|--------------------------------------------|
|--1--1-1h3- /(5/8)h10---10-10-10-10-8-------|
|--------------------------------------10-8\ |
|--------------------------------------------|

 14
|------------------------------------|
|------------------------------------|
|----------------------- /6--6-0-4 \ |
|--(7/9)-9-9-7-4-2--2-2--------------|
|------------------------------------|

 15
|--------------------------------------------|
|--------------------------------------------|
|--1--1-1h3- /(5/8)h10---10-10-10-10-8-------|
|--------------------------------------10-8\ |
|--------------------------------------------|

 16
|------------------------------------||
|------------------------------------||
|----------------------- /6-0-6---4--||
|--(7/9)-9-9-7-4-2--2-0--------------||
|------------------------------------||



================================================================================
Part 6:                                                   [ Time 02:50 - 03:39 ]
================================================================================


||-----------------------------| |
||-----------------------------|*|
||----*------4-*---------------| | x 16
||--6-6--------4-----4---4-3 / |*|
||-----------------6---6-------| |



================================================================================
Part 7:                                                   [ Time 03:39 - 04:03 ]
================================================================================


||------------------------|-----------------------|--------------------------|
||---------6--------------|---------6-------------|--------------------------|
||--4-----(6)---4--4--4-4-|--4-----(4)---4--4--3--|--1---1-1--1----1--3-1----|
||------------------------|-----------------------|-----------------------3--|
||------------------------|-----------------------|--------------------------|


|-----------------------|-----------------------|-------------------------|
|-----------------------|---------6-------------|-------------------------|
|--1---1---1----1----3--|--4-----(4)---4---4-4--|--4--4---4-4----4--4--3--|
|-----------------------|-----------------------|-------------------------|
|-----------------------|-----------------------|-------------------------|


|---------------------------|---------------------------------||
|---------------------------|---------------------------------||
|-------------------------6-|--8--8-8-8-8-8-8-8-8-7-7\6\5\3\1-||
|--1---1-1--1----1--1--3/---|---------------------------------||
|---------------------------|---------------------------------||



================================================================================
Part 8:                                                   [ Time 04:03 - 04:45 ]
================================================================================


||------------------------|-----------------------------|
||------------------------|-----------------------------|
||------------------------|-----------------------------|
||--6---5---4----3---3-3--|--2---2-2p0-2----2-2-2-2-2-0-|
||------------------------|-----------------------------|


|-------------------------------|------------------------|
|-------------------------------|------------------------|
|-------------------------------|------------------------|
|--2--2-2-2p0-2---2-2-0-2-2-2-0-|--6---5---4----3---3-3--|
|-------------------------------|------------------------|


|-------------------------------|----------------------------------------|
|-------------2h4--4--6-4-------|--2h4-4-4-2h4-4-4-2h4-4-4-4-4-4-4-------|
|-------------------------6-4-4-|----------------------------------6-4-0-|
|--2---2-2p0--------------------|----------------------------------------|
|-------------------------------|----------------------------------------|


|------------------------|------------------------------|
|------------------------|------------------------------|
|------------------------|------------------------------|
|--6---5---4----3---3-3--|--2---2-2p0-2---2-2-0-2-2-2-0-|
|------------------------|------------------------------|


|--------------------------------|-----------------------|-------------------||
|--------------------------------|-----------------------|-------------------||
|--------------------------------|-----------------------|-------------------||
|--2-2-2-2-2p0-2---2-2-2-2-2-5-5-|--6---5---4----3-------|--2----------------||
|--------------------------------|-----------------------|-------------------||



Hold the final note until fade.



================================================================================
End
================================================================================


Tab summary:        Part 1
                    Part 2
                    Part 3
                    Part 4
                    Part 5
                    Part 6
                    Part 7
                    Part 8

                    END





Comments


Popular Echobrain tabs & chords
Colder World Bass Tabs
Cryin Shame Bass Tabs
The Feeling Is Over Bass Tabs
Adrift Tabs
Anjali Tabs
Colder World Tabs
Keep Me Alive Tabs
Spoonfed Tabs
Suckerpunch Tabs
We Are Ghosts Ukulele


Song lyrics



↑ Back to top | Tablatures and chords are parodies/interpretations of the original songs. You may use it for private study, scholarship, research or language learning purposes only
© 2014 AZChords.com Contact us | Privacy policy | DMCA | Add/correct tabs | Request tabs | Top 50 tabs