>
 >
Spoonfed

Spoonfed Guitar Tabs

Echobrain - Spoonfed chords, tabs, tablatures, lyrics

Guitar lessons | Add/correct | Request | Top 50 tabs Artists:  A B C D E F G H I J K L M N O P Q R S T U V W X Y Z 0-9

Spoonfed Guitar Tabs – Echobrain

CD, Sheet music, Poster

Do you like Spoonfed? Share with your friends now
Bass TabsTabs
================================================================================
                                E C H O B R A I N

                                       -

                                 S P O O N F E D
================================================================================


                                    ECHOBRAIN
		            (c) 2002 Surfdog Records


                                 Standard Tuning
                                   E A D G B E


			          Tempo = 80BPM
		               Time Signature = 4/4



                          -----------------------------

		                 PADDY MCMULLAN

                                   Version 1.0
                               22nd  January 2011
                             -----------------------

		             Tablature Symbols Used:


 P.M...    -  Palm Mute
 h         -  Hammer-on
 *         -  Staccato Note (Bring the indicated note to an abrupt stop)
 p         -  Pull-off
 4 b 5     -  Bend Up
 5 r 4     -  Release Bend
 pb19      -  Pre-bend (Bend to the note before striking it)
 \         -  Slide Down to/Down From
 /         -  Slide Up to/Up From
 ( / )     -  Legato Slide
 ( )       -  Ghost Note/Tied Note/Implied Note
 x         -  Muted Note/Dead Note
 REST      -  Rest, and sustain rest for duration of blank space
 |_3_|     -  Triplet Note(s)
 |------|  -  Let Notes Ring


                              ------------------
                               Instruments Used
                              ------------------

                      Guitar 1: Distortion (Panned Left)
                      Guitar 2: Distortion (Panned Right)
                    Lead Guitar 1: Distortion (Panned Right)
                    Lead Guitar 2: Distortion  (Panned Left)



================================================================================
Part 1:                                                 [ Time - 00:00 - 00:36 ]
================================================================================


--------------
Guitars 1 & 2: x 6
--------------


||-----------------------------------------|--------------------------------| |
||--------------10h11-11-11-11-11-11--10-R-|--6--6-6-6-R-11------8------6-R-| |
||--7--7-7-7----10h12-12-12-12-12-12--12-E-|--6--6-6-6-E-11------8------6-E-|*|
||--8--8-8-8----10h12-12-12-12-12-12--12-S-|--6--6-6-6-S-11--x-x-8--x-x-6-S-|*| 
||--8--8-8-8----10----10-10-10-10-10--10-T-|--4--4-4-4-T-9---x-x-6--x-x-4-T-| |
||--6--6-6-6- /----------------------------|--------------------------------| |



Guitar 2 doesn't join in until the second bar.



--------------
Lead Guitar 1: x 1
--------------


                  //  Hold bend  \\
||-------------|----------------------------------------------------|
||--R--      --|--11-----11--11--11--11---11--11--11--11--11--------|
||--E--      --|--13b15--15--15--15-r13---13--13--13--13--13--13\ 0-|
||--S--      --|----------------------------------------------------|
||--T--      --|----------------------------------------------------|
||-------------|----------------------------------------------------|

        //       Hold bend      \\
|---------------------------------------------|
|--3----3--3--3---3----3--3--3--3--3----------|
|--5b7--7--7--7---5b7--7--7--7--7-r5----3 h 5-|
|---------------------------------------------|
|---------------------------------------------|
|---------------------------------------------|


|----------------------------------|
|----------------------------------|
|--6p5-3h5-3---3-------------------|
|------------4---4-3-4-3---3-------|
|------------------------6---4-3h4-|
|----------------------------------|


||----------------------------------------------|
||----------------------------------------------|
||--7h8-(7\5)5h7---7-7h8-(7\5)5h7---7-7-6--6--7-|
||--------------------------------------x-(0)-0-|
||----------------------------------------------|
||----------------------------------------------|

                      /Hold bend\
|--------------------------------------| |
|--------------------6-6---------6-6\ -| |
|--6--6-6-6-8--8--8----8b10--10--------|*|
|--------------------------------------|*|
|--------------------------------------| |
|--------------------------------------| |
           ...   ...         ..



Repeat the last two bars 3 more times.



-------------
Lead Guitar 2: x 1
-------------


Rest for 8 bars


||-----------------------------------|-------------------------------------|
||-----------------------------------|-------------------------------------|
||--7b8--7-7-7--/7b8--7-7-7-7-7b8--7-|--6--6-6-6-6-6/8--8-8-8--(8/10)-10~~-|
||--x----x-x-x---x----x-x-x-x-x----x-|--x--x-x-x-x---x--x-x-x---x-----x----|
||--5b6--5-5-5--/5bb--5-5-5-5-5b6--5-|--4--4-4-4-4-6/6--6-6-6--(6/8 )-8~~--|
||-----------------------------------|-------------------------------------|


|--------------------------------------|
|--------------------------------------|
|--7b8--7-7-7--/7b8--7-7-7-7-(7/8)-8-8-|
|--x----x-x-x---x----x-x-x-x--x----x-x-|
|--5b6--5-5-5--/5b6--5-5-5-5-(5/6)-6-6-|
|--------------------------------------|


|------------------------------------------------||--------------------||
|------------------------------------------------||--------R--       --||
|--(8/10)-10-10-10-10-(11\10)-10-10-10--10-10-8--||--7- \--E--       --||
|---x-----x--x--x--x---x------x--x--x---x--x--x--||--x-----S--       --||
|--(6/8 )-8--8--8--8--(9 \ 8)-8--8--8---8--8--6--||--5- \--T--       --||
|------------------------------------------------||--------------------||



================================================================================
Part 2:  Guitars 1 & 2                                    [ Time 00:36 - 01:07 ]
================================================================================


||-------------------------------|-------------------------------|
||-------R-----8-8--R--------6---|-------R-----8-8--R------------|
||--7-7--E-----8-8--E--------6---|--7-7--E-----8-8--E--------6---|
||--8-8--S-----8-8--S--------6---|--8-8--S-----8-8--S--------7---|
||--8-8--T--x--6-6--T--x-x-x-4---|--8-8--T--x--6-6--T--x-x-x-7---|
||--6-6-----x----------x-x-x-----|--6-6-----x----------x-x-x-5---|


|---------------------------------|---------------------------------|
|-------R----------R--------------|-------R-----6----R--------------|
|--5-5--E-----4-4--E--------3-- / |--7-7--E-----6-5--E------5-4-- / |
|--6-6--S-----5-5--S--------4-- / |--8-8--S-----6-6--S------6-5-- / |
|--6-6--T--x--5-5--T--x-x-x-4-- / |--8-8--T--x--4-6--T--x-x-6-5-- / |
|--4-4-----x--3-3-----x-x-x-2-- / |--6-6-----x----4-----x-x-4-3-- / |


|---------------------------------| |
|-------R-----6----R--------------| |
|--7-7--E-----6-5--E------5-4-- / |*|
|--8-8--S-----6-6--S------6-5-- / |*| x 2
|--8-8--T--x--4-6--T--x-x-6-5-- / | |
|--6-6-----x----4-----x-x-4-3-- / | |



On the second repeat the final slides are ignored.



================================================================================
Part 3:                                                   [ Time 01:07 - 01:25 ]
================================================================================


--------------
Guitars 1 & 2: x 1
--------------


||--2--2--2--2--2--2--2--2 \ |--1--1--1--1--1--1--1--1 / |
||--2--2--2--2--2--2--2--2 \ |--1--1--1--1--1--1--1--1 / |
||--3--3--3--3--3--3--3--3 \ |--2--2--2--2--2--2--2--2 / |
||--4--4--4--4--4--4--4--4 \ |--3--3--3--3--3--3--3--3 / |
||--4--4--4--4--4--4--4--4 \ |--3--3--3--3--3--3--3--3 / |
||--2--2--2--2--2--2--2--2 \ |--1--1--1--1--1--1--1--1 / |


|---------------------------------|---------------------------------|
|-------R-----6----R--------------|-------R-----6----R--------------|
|--7-7--E-----6-5--E------5-4-- / |--7-7--E-----6-5--E------5-4-- / |
|--8-8--S-----6-6--S------6-5-- / |--8-8--S-----6-6--S------6-5-- / |
|--8-8--T--x--4-6--T--x-x-6-5-- / |--8-8--T--x--4-6--T--x-x-6-5-- / |
|--6-6-----x----4-----x-x-4-3-- / |--6-6-----x----4-----x-x-4-3-- / |


|---------------------------------|---------------------------------||
|-------R-----6----R--------------|-------R-----6----R--------------||
|--7-7--E-----6-5--E------5-4-- / |--7-7--E-----6-5--E------5-4-- / ||
|--8-8--S-----6-6--S------6-5-- / |--8-8--S-----6-6--S------6-5-- / ||
|--8-8--T--x--4-6--T--x-x-6-5-- / |--8-8--T--x--4-6--T--x-x-6-5-- / ||
|--6-6-----x----4-----x-x-4-3-- / |--6-6-----x----4-----x-x-4-3-- / ||



--------------
Lead Guitar 1: x 1
--------------


||------------------------|--------------------------|
||------------------------|--------------------------|
||--3~~------------ /6----|--5~~-------(5/6)--(6/8)--|
||--x----------------x----|--x----------x------x-----|
||--1~~------------ /4----|--3~~-------(3/4)--(4/6)--|
||------------------------|--------------------------|


|-----------------------------|----------------------------|
|-----------------------------|----------R--        --9----|
|--(8/10)~~--------- \---6 b 7|--8-------E--        ----10-|
|---x------------------x-6 b 7|--8-8- \--S--        -------|
|--(6/8 )~~-------- \--x------|----------T--        -------|
|-----------------------------|----------------------------|


|--*-----*-----*-----------------------|----------------------------------||
|--9b11--9b11--9b11--9b11----11r9------|-------------------------------R--||
|----------------------------------10--|--8-10-6b8---------------6 b7--E--||
|--------------------------------------|------------8--6-8~~-----6 b7--S--||
|--------------------------------------|-------------------------------T--||
|--------------------------------------|----------------------------------||



================================================================================
Part 4:                                                   [ Time 01:25 - 02:01 ]
================================================================================


--------------
Guitars 1 & 2:
--------------


Repeat Part 2, adding the following two bars to the second repeat:



|--2--2--2--2--2--2--2--2 / |--4--4--4--4--5--5--5--5--||
|--2--2--2--2--2--2--2--2 / |--4--4--4--4--5--5--5--5--||
|--3--3--3--3--3--3--3--3 / |--5--5--5--5--6--6--6--6--||
|--4--4--4--4--4--4--4--4 / |--6--6--6--6--7--7--7--7--||
|--4--4--4--4--4--4--4--4 / |--6--6--6--6--7--7--7--7--||
|--2--2--2--2--2--2--2--2 / |--4--4--4--4--5--5--5--5--||



During these two bars Lead Guitar 1 plays the following:



|-------------------------|--------------------||
|-------------------------|--------------------||
|--3--------3----(3/6)----|--5--------6--------||
|--x--------x-----x-------|--x--------x--------||
|--1--------1----(1/4)----|--3--------4--------||
|-------------------------|--------------------||



================================================================================
Part 5:                                                   [ Time 02:01 - 02:50 ]
================================================================================


--------------
Guitars 1 & 2:
--------------


Repeat Part 1 eight times



--------------
Lead Guitar 1:
--------------


||------------------------------|-----------------------------| |
||------------------------------|-----------------------------| |
||--7--7--7-- /7----7--7--(6/7)-|--6--6-6-6 \ (3 / 5)-5----6--|*|
||--x--x--x----x----x--x---x----|--x--x-x-x----x------x----x--|*| x 4
||--5--5--5-- /5----5--5--(4/5)-|--4--4-4-4 \ (1 / 3)-3----4--| |
||------------------------------|-----------------------------| |



--------------
Lead Guitar 2:
--------------


Rest for 8 bars (start when Lead Guitar 1 stops)


||--------------------------------|-------------------------------------------|
||--------------------------------|-------------------------------------------|
||--7--7--7-- /7--7--7-7-(7/8)-8--|--(8/10)--10-10-10~--10~---10-10~---10-8~~-|
||--x--x--x----x--x--x-x--x----x--|---x------x--x--x----x-----x--x-----x--x---|
||--5--5--5-- /5--5--5-5-(5/6)-6--|--(6/ 8)--8--8--8~~--8~~---8--8~~---8--6~~-|
||--------------------------------|-------------------------------------------|


|----------------------------------------------|-------------------------------|
|----------------------------------------------|-------------------------------|
|-(8/10)--10-10-10--10--10-10-10-10-10b11-- \8-|--8 \ 6-6--- /8--8-8-8---------|
|--x------x--x--x---x---x--x--x--x--x----------|--x---x-x-----x--x-x-x--8 \ 6--|
|-(6 /8)--8--8--8---8---8--8--8--8--8 b 9-- \6-|--6 \ 4-4--- /6--6-6-6--x---x--|
|----------------------------------------------|------------------------6 \ 4--|


|----------------------------------|------------------------------------------|
|----------------------------------|------------------------------------------|
|-- /7--7-7-7-- /7---7--7-7 b8 r7--|--6--6-6-6-6- /8--8-8-8--(8/10)--10b11r10-|
|----x--x-x-x----x---x--x-x--------|--x--x-x-x-x---x--x-x-x---x------x--------|
|-- /5--5-5-5-- /5---5--5-5 b6 r5--|--4--4-4-4-4- /6--6-6-6--(6/8 )--8b 9 r8--|
|----------------------------------|------------------------------------------|


|------------------------------------|
|------------------------------------|
|-- \7--7-7-7-7- /7---7--7-(7/8)-8~~-|
|----x--x-x-x-x---x---x--x--x----x---|
|-- \5--5-5-5-5- /5---5--5-(5/6)-6~~-|
|------------------------------------|


|----------------------------------------------------||------------------||
|----------------------------------------------------||--------R--     --||
|--(8/10)--10-10-10-10-10b11r10---10-10-10-10-10--8--||--------E--     --||
|---x------x--x--x--x--x----------x--x--x--x--x---x--||--------S--     --||
|--(6/ 8)--8--8--8--8--8b 9 r8----8--8--8--8--8---6--||--8-- \-T--     --||
|----------------------------------------------------||--6-- \-----------||



================================================================================
Part 6:                                                   [ Time 02:50 - 03:39 ]
================================================================================


--------------
Guitars 1 & 2:
--------------


Repeat Part 2 three and 1/2 times



--------------
Lead Guitar 1:
--------------


||---------------------------------------------------|
||--6-----6---6---6---6----6-----6--6--6--6--6--6--6-|
||--8b10--10--10--10--10--r8-----8--8--8--8--8--8--8-|
||---------------------------------------------------|
||---------------------------------------------------|
||---------------------------------------------------|


|-------------------------------------------|---------------------------|
|--6-----6---6---6----6----6--6-------------|---------------------------|
|--8b10--10--10--10--r8----8--8-8-8-6h8-6---|---------------------6  b7-|
|-----------------------------------------8-|--  \----------------6  b7-|
|-------------------------------------------|---------------------------|
|-------------------------------------------|---------------------------|


|--------------------------------|----------------------------------|
|----------R--   ----------------|----------------------------------|
|----------E--   ----------------|--6h8p6---6-8-9p8p6---6-8-9p8p6h8-|
|--8-8- \--S--   --------6h8-6h8-|--------8-----------8-------------|
|----------T--   --6-7-8---------|----------------------------------|
|--------------------------------|----------------------------------|


|--------------------------------|---------------------------|
|--------------------------------|----------R--       -------|
|--6---6-------------------------|----------E--       --6 b7-|
|----8---8-6h8p6---8-------------|--8-8- \--S--       --6 b7-|
|----------------7---6-7-4-------|--8-8- \--T--       -------|
|--------------------------6~~---|--6-6- \-------------------|


|----------------------------|--------------------------9   b11.5-|
|----------R--     ----9-9-9-|--11--11--11--11~~---11-9-----------|
|----------E--     --x---0---|------------------------------------|
|--8-8- \--S--     ----------|------------------------------------|
|----------T--     ----------|------------------------------------|
|----------------------------|------------------------------------|


|--------pb13    r  11--|--9----------------------|-------------------------|
|--R--  ----------------|----11- \--R--         --|--     ------------------|
|--E--  ----------------|-----------E--         --|--     --10  r 8-6-8-6~~-|
|--S--  ----------------|-----------S--         --|--     ------------------|
|--T--  ----------------|-----------T--         --|--     ------------------|
|-----------------------|-------------------------|-------------------------|


|-----------------------|----------------------------------|
|----------R--        --|----------------------------------|
|----------E--        --|--------------------6-8p6-8-9-8-6-|
|--8~-- \--S--        --|--------6h8p6---6h8---------------|
|----------T--        --|--6h7h8-------8-------------------|
|-----------------------|----------------------------------|


|-------------------|--------------*---*--------------||
|--R--            --|-- /6---R---6-6---6---6----------||
|--E--            --|-- /6---E---6-6---6---6----------||
|--S--            --|-- /6---S---6-6---6---6-8~~- \---||
|--T--            --|--------T----------------------0-||
|-------------------|---------------------------------||



--------------
Lead Guitar 2:
--------------


Rest for 8 bars


||-------------------------------|---------------------| |
||-------------------------------|---------------------| |
||-- /10--8--- /8---6---(6/8)----|---------------------|*|
||----x---x-----x---x----x----6--|-- /8----------------|*| x 4
||-- /8---6--- /6---4---(4/6)-x--|----x----------------| |
||----------------------------4--|-- /6----------------| |



================================================================================
Part 7:                                                   [ Time 03:39 - 04:03 ]
================================================================================


---------
Guitar 1:
---------


||-------------------|-------------------|-------------------|
||-------------------|-------------------|-------------------|
||--6----------------|--(6)--------------|-------------------|
||--6----------------|--(6)--------------|--8----------------|
||--4----------------|--(4)--------------|--8----------------|
||-------------------|-------------------|--6----------------|


|-------------------|---------------|-------------------|-------------------|
|-------------------|---------------|-------------------|--1----------------|
|-------------------|--6------------|--(6)--------------|--2----------------|
|--(8)--------------|--6------------|--(6)--------------|--3----------------|
|--(8)--------------|--4------------|--(4)--------------|--3----------------|
|--(6)--------------|---------------|-------------------|--1----------------|


|-------------------------||
|--1--1-1--1-1--------1---||
|--2--2-2--2-2--------2---||
|--3--3-3--3-3--------3---||
|--3--3-3--3-3--------3---||
|--1--1-1--1-1--------1---||



---------
Guitar 2:
---------


                         |-------|
||--------------------|-----------------------|---------------------------|
||--6------------6----|-----------------------|---------------------------|
||--6------------6----|--4--------------4-- \ |--3---3-3--3---3-3--3--3---|
||--6------------6----|--6---6----------6-- \ |--3---3-3--3---3-3--3--3---|
||--4------------4----|----------6------8-- \ |--1---1-1--1---1-1--1--1---|
||--------------------|-----------------------|---------------------------|


|--------------------------|---------------------|---------------------|
|--------------------------|--6------6------6----|---------------------|
|--5---5-5--5---5-5--5--5--|--6------6------6----|--4------4------4----|
|--6---6-6--6---6-6--6--6--|--6------6------6----|--6------6------6----|
|--8---8-8--8---8-8--8--8--|--4------4------4----|--6------6------6----|
|--------------------------|---------------------|---------------------|


|------------------------------------|------------------------||
|------------------------------------|------------------------||
|--10---10-10--10---10-10--10--10-10-|--8--8-8--8-8-----------||
|--7----7--7---7----7--7---7---7--7--|--7--7-7--7-7-----------||
|--8----8--8---8----8--8---8---8--8--|--8--8-8--8-8-----------||
|------------------------------------|------------------------||



--------------
Lead Guitar 1:
--------------


Rest for 5 bars


|----------------------------|
|--R--  ---------------------|
|--E--  --8------(8 /10)-- \-|
|--S--  --x-------x----------|
|--T--  --6------(6 /8 )-- \-|
|----------------------------|


|-------------------|-------------------||
|-------------------|-------------------||
|--5----------------|--(5)--------------||
|--x----------------|-------------------||
|--3----------------|--(3)--------------||
|-------------------|-------------------||



--------------
Lead Guitar 2:
--------------


Rest for 2 bars


                        |------|
||---------------------------------|--------------------------------|
||---------------------------------|--------------------------------|
||---------------------------------|--------------------------------|
||--8---8- /10--10------10----10---|--------------------------------|
||--5---5- /8---8-------8h 10-10---|-- /8----8-- /10----11----11/13-|
||---------------------------------|--------------------------------|


|-------------------------|--------------------------------|
|-------------------------|--------------------------------|
|--13-----------(10 \ 13)-|--(10/8)~~----- /10----10--10---|
|--x-------------x--------|---x-------------x-----x---x----|
|--11-----------(8  \ 11)-|--(8 /6)~~----- /8-----8---8----|
|-------------------------|--------------------------------|


|------------------------------|---------------------------||
|------------------------------|---------------------------||
|--10~~-----10~~-----10--10-10-|--8~~--8~--8-8~~-------8---||
|--x--------x--------x---x--x--|--x----x---x-x---------x---||
|--8~~------8~~------8---8--8--|--6~~--6~--6-6~~-------6---||
|------------------------------|---------------------------||



================================================================================
Part 8:                                                   [ Time 04:03 - 04:45 ]
================================================================================


---------
Guitar 1: x 3
---------

                                                 |_________________________[1,3]
                            *         *                  *
||-6--5--4---3---3--|-2---2-2---2---2-2---2-2-2--|-2---2-2---2---2-2--2-2-2-2-||
||-6--5--4---3---3--|-2---2-2---2---2-2---2-2-2--|-2---2-2---2---2-2--2-2-2-2-||
||-7--6--5---4---4--|-3---3-3---3---3-3---3-3-3--|-3---3-3---3---3-3--3-3-3-3-||
||-8--7--6---5---5--|-4---4-4---4---4-4---4-4-4--|-4---4-4---4---4-4--4-4-4-4-||
||-8--7--6---5---5--|-4---4-4---4---4-4---4-4-4--|-4---4-4---4---4-4--4-4-4-4-||
||-6--5--4---3---3--|-2---2-2---2---2-2---2-2-2--|-2---2-2---2---2-2--2-2-2-2-||


|______________________________________[2]
                |_3_| |_3_| |_3_| |_3_|
|--2---2-2---2--------------------------||
|--2---2-2---2--------------------------||
|--3---3-3---3----3-3-3-3-3-3-3-3-3-3-3-||
|--4---4-4---4----4-4-4-4-4-4-4-4-4-4-4-||
|--4---4-4---4----4-4-4-4-4-4-4-4-4-4-4-||
|--2---2-2---2----2-2-2-2-2-2-2-2-2-2-2-||



After the third repeat continue with the following:



|--6---5---4----3-------|-------------------||
|--6---5---4----3--R-  -|-------------------||
|--7---6---5----4--E-  -|--3----------------||
|--8---7---6----5--S-  -|--4----------------||
|--8---7---6----5--T-  -|--4----------------||
|--6---5---4----3-------|--2----------------||



Hold the last chord until fade.



---------
Guitar 2:
---------


                                  *         *
||-----------------------|-----------------------------|
||-----------------------|--7---7-7---7---7-7---7-7-7--|
||--7---6---5----4----4--|--6---6-6---6---6-6---6-8-6--|
||--8---7---6----5----5--|--8---8-8---8---8-8---8-8-8--|
||--8---7---6----5----5--|-----------------------------|
||--6---5---4----3----3--|-----------------------------|

       *           *
|-----------------------------|--6---5---4----3----3--|
|--7---7-----7---7-7---7-7-7--|--6---5---4----3----3--|
|--9---9---6-8---8-6---8-6-6--|--7---6---5----4----4--|
|--8---8---8-8---8-8---8-8-8--|--8---7---6----5----5--|
|-----------------------------|--8---7---6----5----5--|
|-----------------------------|--6---5---4----3----3--|

         *         *                   *      |_3_| |_3_| |_3_| |_3_|
|--2---2-2---2---2-2---2-2-2--|--2---2-2---2--------------------------|
|--2---2-2---2---2-2---2-2-2--|--2---2-2---2--------------------------|
|--3---3-3---3---3-3---3-3-3--|--3---3-3---3----3-3-3-3-3-3-3-3-3-3-3-|
|--4---4-4---4---4-4---4-4-4--|--4---4-4---4----4-4-4-4-4-4-4-4-4-4-4-|
|--4---4-4---4---4-4---4-4-4--|--4---4-4---4----4-4-4-4-4-4-4-4-4-4-4-|
|--2---2-2---2---2-2---2-2-2--|--2---2-2---2----2-2-2-2-2-2-2-2-2-2-2-|


                                 *         *
|-----------------------|-----------------------------|
|-----------------------|--7---7-7---7---7-7---7-7-7--|
|--7---6---5----4----4--|--6---6-6---6---6-6---6-8-6--|
|--8---7---6----5----5--|--8---8-8---8---8-8---8-8-8--|
|--8---7---6----5----5--|-----------------------------|
|--6---5---4----3----3--|-----------------------------|


       *
|---------------------------|--6---5---4----3-------|-------------------||
|--7---7-----7---7-7--7--7--|--6---5---4----3--R-  -|-------------------||
|--9---9---6-8---8-6--8--6--|--7---6---5----4--E-  -|--3----------------||
|--8---8---8-8---8-8--8--8--|--8---7---6----5--S-  -|--4----------------||
|---------------------------|--8---7---6----5--T-  -|--4----------------||
|---------------------------|--6---5---4----3-------|--2----------------||



Hold the last chord until fade.



--------------
Lead Guitar 1:
--------------


||-------------------------|-------------------|-------------------| |
||--11---10---9----8----8--|--7----------------|--(7)--------------| |
||--x----x----x----x----x--|--x----------------|-------------------|*|
||--8----7----6----5----5--|--4----------------|--(4)--------------|*| x 3
||-------------------------|-------------------|-------------------| |
||-------------------------|-------------------|-------------------| |


|-------------------------|-------------------|-------------------||
|--11---10---9----8--R-  -|--7----------------|-(7)---------------||
|--x----x----x----x--E-  -|--x----------------|-------------------||
|--8----7----6----5--S-  -|--4----------------|--6----------------||
|--------------------T-  -|-------------------|-------------------||
|-------------------------|-------------------|-------------------||



Hold the final notes until fade.



--------------
Lead Guitar 2:
--------------


||--------------------------|-----------------------------|
||--------------------------|-----------------------------|
||--10---9---8----6b7---6b7-|--6---6-6--6---6-6--(6/8\6)--|
||--x----x---x----x-----x---|--x---x-x--x---x-x---x-------|
||--8----7---6----4b5---4b5-|--4---4-4--4---4-4--(4/6\4)--|
||--------------------------|-----------------------------|


|----------------------------|-------------------------|
|----------------------------|-------------------------|
|--6---6-6--6---6-6--6-6-----|--7---6---5----4---- /4--|
|--x---x-x--x---x-x--x-x-----|--x---x---x----x------x--|
|--4---4-4--4---4-4--4-4-----|--5---4---3----2---- /2--|
|------------------------6\--|-------------------------|


|------------------------------|--------------------------|
|------------------------------|--------------------------|
|--3---3--3-3---3-3-- /6-6-6-5-|--6--6-6------------------|
|--x---x--x-x---x-x----x-x-x-x-|--x--x-x--8-6~~-----8~~---|
|--1---1--1-1---1-1-- /4-4-4-3-|--4--4-4--x-x-------x-----|
|------------------------------|----------6-4~~-----6~~---|


|--------------------------|------------------------------|
|--------------------------|------------------------------|
|--10---9---8----6b7---6b7-|--6---6-6--6---6-6--(6/8\6/8)-|
|--x----x---x----x-----x---|--x---x-x--x---x-x---x--------|
|--8----7---6----4b5---4b5-|--4---4-4--4---4-4--(4/6\4/6)-|
|--------------------------|------------------------------|


|-----------------------------|-----------------------|---------------||
|-----------------------------|-----------------------|---------------||
|(8)b9r8---8b9r8--6-- /(8\6)--|--7---6---5----4-------|--3------------||
|----------x------x-----x-----|--x---x---x----x-------|--x------------||
|(6)b7r6---6b7r6--4-- /(6\4)--|--5---4---3----2-------|--1------------||
|-----------------------------|-----------------------|---------------||



Hold the final notes until fade.



================================================================================
End
================================================================================


Tab summary:        Part 1
                    Part 2
                    Part 3
                    Part 4
                    Part 5
                    Part 6
                    Part 7
                    Part 8

                    END





Comments


Popular Echobrain tabs & chords
Colder World Bass Tabs
Cryin Shame Bass Tabs
Spoonfed Bass Tabs
The Feeling Is Over Bass Tabs
We Are Ghosts Chords
Adrift Tabs
Anjali Tabs
Keep Me Alive Tabs
Suckerpunch Tabs
We Are Ghosts Ukulele


Song lyrics



↑ Back to top | Tablatures and chords are parodies/interpretations of the original songs. You may use it for private study, scholarship, research or language learning purposes only
© 2014 AZChords.com Contact us | Privacy policy | DMCA | Add/correct tabs | Request tabs | Top 50 tabs