» » »

Echo And The Bunnymen, All That Jazz Bass tabs (ver.1)

Artists:  A B C D E F G H I J K L M N O P Q R S T U V W X Y Z # 

All That Jazz Bass tabs (ver.1)

Echo And The Bunnymen Tabs
Rating:
0/5 (0 votes)
All That Jazz lessons Tabs too difficult? Try these video lessons and learn fast
                Main riff, repeats all the way through, you can play either this:
|---------------------------------------|
|---------------------------------------|
|---------------------------------------|
|--0--5--0--5-3---0--5--0--5-7----------|

Or you could play this:
|-----------------|
|-----------------|
|-----------------|
|--0--5--0---5-7--|

Or you could play this:
|-----------------|
|-----------------|
|-----------------|
|--0--5--0---5-3--|

Either way it still sounds basically the same, the very top one is just a combination of 
riffs.

"No matter how I shake your fist you know I can't resist it"
|---------------------------------------------------|
|---------------------------------------------------|
|------------3-3-3-3---5-5-5-5---2-2-2-2------------|
|--5-5-5-5------------------------------------------|

"No matter how you shake your fist you know you can't resist it"
|---------------------------------------|
|---------------------------------------|
|-------------3-3-3-3---5-5-5-5---------|
|--5-5-5-5------------------------------|

The part after that, it ends and goes back to the main riff after the crashing sound
|-------------------|----------------------|
|-------------------|----------------------|
|--7--6--------6----|--7-7--6---------6----|
|-----------7-------|-------------7--------|
Play once            Repeat

It's a very easy song to do, it just does a lot of repeating, that's all.
Please rate.
            

comments powered by Disqus
↑ Back to top | Echo And The Bunnymen Bass for All That Jazz. Lyrics for acoustic guitar and electric guitar. Tablatures and chords are parodies/interpretations of the original songs. You may use it for private study, scholarship, research or language learning purposes only