» » »

Ebba Gron, Staten Och Kapitalet Tabs (ver.2)

Artists:  A B C D E F G H I J K L M N O P Q R S T U V W X Y Z # 

Staten Och Kapitalet Tabs (ver.2)

Ebba Gron Tabs
 Rating:
4.2/5 (5 votes)
Staten Och Kapitalet lessons Tabs too difficult? Try these video lessons and learn fast
                Staten & Kapitalet
------------------
As played by: Ebba Grön

This song is really simple in this punk rock version, but it demands some
right hand stamina for sure!

I haven't bothered to tab the solo, because my other guitarist took care of
that when we played it live. Besides, the solo is really easy - you can
figure it out while listening to the song a few times, or just do some
pentatonic improvization over it.

Thing to be wary of: This song can be a strain for your singer. We actually
played it in D tuning, but our vocalist still had trouble with the highest
notes. Tuning down may be a thing you might want to consider.

Intro (play twice):
    Guitar 1:
    A                                   F               G
E|-----------------------------------|-----------------------------------|
B|-----------------------------------|-----------------------------------|o
G|-----------------------------------|-----------------------------------|
D|-----------------------------------|-----------------------------------|
A|--7-7-7-7-7-7-7-7-7-7-7-7-7-7-7-7--|--3-3-3-3-3-3-3-3-5-5-5-5-5-5-5-5--|o
E|--5-5-5-5-5-5-5-5-5-5-5-5-5-5-5-5--|--1-1-1-1-1-1-1-1-3-3-3-3-3-3-3-3--|
 |  x x x x x x x x x x x x x x x x     x x x x x x x x x x x x x x x x
 |
 |  Guitar 2:
 |  Am
E|-----------------------------------|-----------------------------------|
B|--1--------------------------------|-----------------------------------|o
G|--2--------------------------------|-----------------------------------|
D|--2--------------------------------|-----------------------------------|
A|--0--------------------------------|-----------------------------------|o
E|-----------------------------------|-----------------------------------|
    let ring.
                                                                 Kapi-

Verse 1 (play four times):
    Guitar 1:
    A                                   F               G
 |-----------------------------------|-----------------------------------|
o|-----------------------------------|-----------------------------------|o
 |-----------------------------------|-----------------------------------|
 |-----------------------------------|-----------------------------------|
o|--7-7-7-7-7-7-7-7-7-7-7-7-7-7-7-7--|--3-3-3-3-3-3-3-3-5-5-5-5-5-5-5-5--|o
 |--5-5-5-5-5-5-5-5-5-5-5-5-5-5-5-5--|--1-1-1-1-1-1-1-1-3-3-3-3-3-3-3-3--|
 |  x x x x x x x x x x x x x x x x     x x x x x x x x x x x x x x x x
 |
 |  Guitar 2:
 |  A                                   F               G
 |-----------------------------------|-----------------------------------|
o|--10----10--------10----10---------|--6-----6---------8-----8----------|o
 |--9-----9---------9-----9----------|--5-----5---------7-----7----------|
 |--7---7-7---7-7-7-7---7-7---7-7-7--|--3---3-3---3-3-3-5---5-5---5-5-5--|
o|--7-----7---------7-----7----------|--3-----3---------5-----5----------|o
 |-----------------------------------|-----------------------------------|
     -talet höjer hyrorna,     och      staten bostadsbidragen.       Så
     kan man fiffla en smula med den    järnhårda lönelagen          och
     till och med betala mindre i lön än priset för mat och för hyra, för
     staten skjuter så gärna till om levnadsomkostnaderna blivit allt för

Pre-chorus:
    Guitar 1:
    A               A                   G               G
E|-----------------------------------|-----------------------------------|
B|-----------------------------------|-----------------------------------|
G|-----------------------------------|-----------------------------------|
D|-----------------------------------|-----------------------------------|
A|--7---------------7----------------|--5---------------5----------------|
E|--5---------------5----------------|--3---------------3----------------|
 |  let ring.
 |
 |  Guitar 2:
E|-----------------------------------|-----------------------------------|
B|--10--------------10---------------|--8---------------8----------------|
G|--9---------------9----------------|--7---7-----------7---7------------|
D|--7---------------7----------------|--5---------------5----------------|
A|--7---------------7----------------|--5---------------5----------------|
E|-----------------------------------|-----------------------------------|
    let ring.
  1: DYRAAAAAAAAAAAAAAAAAAAAAAAAAaaaaaaaaaaaaaaaaaaaaaaaaaaaaaaaaaaaaaaaa!
  2: FÅLLAAAAAAAAAAAAAAAAAAAAAAAAaaaaaaaaaaaaaaaaaaaaaaaaaaaaaaaaaaaaaaaa!
  3: VÅRDEEEEEEEEEEEEEEEEEEEEEEEEeeeeeeeeeeeeeeeeeeeeeeeeennnnnnnnnnnnnnn!

Chorus (1-4):
    Guitar 1:
    A                                 F               G
E|-----------------------------------|-----------------------------------|
B|-----------------------------------|-----------------------------------|
G|-----------------------------------|-----------------------------------|
D|-----------------------------------|-----------------------------------|
A|--7-7-7-7-7-7-7-7-7-7-7-7-7-7-7-7--|--3-3-3-3-3-3-3-3-5-5-5-5-5-5-5-5--|
E|--5-5-5-5-5-5-5-5-5-5-5-5-5-5-5-5--|--1-1-1-1-1-1-1-1-3-3-3-3-3-3-3-3--|
 |  x x x x x x x x x x x x x x x x     x x x x x x x x x x x x x x x x
 |
 |  Guitar 2:
 |  A                                   F               G
E|-----------------------------------|-----------------------------------|
B|--10----10--------10----10---------|--6-----6---------8-----8----------|
G|--9-----9---------9-----9----------|--5-----5---------7-----7----------|
D|--7---7-7---7-7-7-7---7-7---7-7-7--|--3---3-3---3-3-3-5---5-5---5-5-5--|
A|--7-----7---------7-----7----------|--3-----3---------5-----5----------|
E|-----------------------------------|-----------------------------------|
(1&3):Sida vid sida,              tillsammans hjälps dom  åt;
(2&4):Sida vid sida,              tillsammans stryker de fram;

    Guitar 1:
    C               F                   D               G
E|-----------------------------------|-----------------------------------|
B|-----------------------------------|-----------------------------------|
G|-----------------------------------|-----------------------------------|
D|--5-5-5-5-5-5-5-5------------------|--7-7-7-7-7-7-7-7------------------|
A|--3-3-3-3-3-3-3-3—3-3-3-3-3-3-3-3--|--5-5-5-5-5-5-5-5-5-5-5-5-5-5-5-5--|
E|------------------1-1-1-1-1-1-1-1--|------------------3-3-3-3-3-3-3-3--|
 |  x x x x x x x x x x x x x x x x     x x x x x x x x x x x x x x x x
 |
 |  Guitar 2:
 |  C               F                   D               G
E|-----------------------------------|-----------------------------------|
B|------------------6-----6---6-6-6--|------------------8---8-8---8-8-8--|
G|--5---5-5---5-5-5-5---5-5---5-5-5--|--7---7-7---7-7-7-7---7-7---7-7-7--|
D|--5---5-5---5-5-5-3---3-3---3-3-3--|--7---7-7---7-7-7-5---5-5---5-5-5--|
A|--3-----3---------3-----3----------|--5-----5---------5-----5----------|
E|-----------------------------------|-----------------------------------|
     staten och kapitalet,      dom     sitter i samma  båt.       Fast
     staten och kapitalet,      två     vargar, fromma som lamm.    Men

    Guitar 1:
    C               G                   C               G
E|-----------------------------------|-----------------------------------|
B|-----------------------------------|-----------------------------------|
G|-----------------------------------|-----------------------------------|
D|--5-5-5-5-5-5-5-5------------------|--5-5-5-5-5-5-5-5------------------|
A|--3-3-3-3-3-3-3-3—5-5-5-5-5-5-5-5--|--3-3-3-3-3-3-3-3-5-5-5-5-5-5-5-5--|
E|------------------3-3-3-3-3-3-3-3--|------------------3-3-3-3-3-3-3-3--|
 |  x x x x x x x x x x x x x x x x     x x x x x x x x x x x x x x x x
 |
 |  Guitar 2:
 |  C               G                   C               G
E|-----------------------------------|-----------------------------------|
B|-----------------------------------|-----------------------------------|
G|--5---5-5---5-5-5------------------|--5---5-5---5-5-5------------------|
D|--5---5-5---5-5-5-5---5-5---5-5-5--|--5---5-5---5-5-5-5---5-5---5-5-5--|
A|--3-----3---------5---5-5---5-5-5--|--3-----3---------5---5-5---5-5-5--|
E|------------------3-----3----------|------------------3-----3----------|
     det är inte    dom som ror, som    ror så svetten  lackar;     och
 
    Guitar 1:
    C               C                   C
E|-----------------------------------|-------------------|
B|-----------------------------------|-------------------|
G|-----------------------------------|-------------------|
D|--5-5-5-5-5-5-5-5-5-5-5-5-5-5-5-5--|--5----------------|
A|--3-3-3-3-3-3-3-3—3-3-3-3-3-3-3-3--|--3----------------|
E|-----------------------------------|-------------------|
 |  x x x x x x x x x x x x x x x x     x silence
 |
 |  Guitar 2:
 |  C               C                   C
E|-----------------------------------|-------------------|
B|-----------------------------------|-------------------|
G|--5---5-5---5-5-5-5---5-5---5-5-5--|--5----------------|
D|--5---5-5---5-5-5-5---5-5---5-5-5--|--5----------------|
A|--3-----3---------3-----3----------|--3----------------|
E|-----------------------------------|-------------------|
                                          Silence
     piskan som kittlar, kittlar inte heller...  ...deras

    Guitar 1:
    A               D                   G
E|-----------------------------------|-----------------------------------|
B|-----------------------------------|-----------------------------------|
G|-----------------------------------|-----------------------------------|
D|------------------7-7-7-7-7-7-7-7--|-----------------------------------|
A|--7-7-7-7-7-7-7-7—5-5-5-5-5-5-5-5--|--5-5-5-5-5-5-5-5-5-5-5-5-5-5-5-5--|
E|--5-5-5-5-5-5-5-5------------------|--3-3-3-3-3-3-3-3-3-3-3-3-3-3-3-3--|
 |  x x x x x x x x x x x x x x x x     x x x x x x x x x x x x x x x x
 |
 |  Guitar 2:
 |  A               D                   G
E|-----------------------------------|-----------------------------------|
B|--10----10-------------------------|--9---9-9---9-9---9-----9---9-9-9--|
G|--9---9-9---9-9---7---7-7---7-7----|--7---7-7---7-7---7---7-7---7-7-7--|
D|--7---7-7---7-7---7---7-7---7-7----|--5---5-5---5-5---5---5-5---5-5-5--|
A|--7-----7---------5-----5----------|--5-----5---------5-----5----------|
E|-----------------------------------|-----------------------------------|
     Feeeeeeeeetaaa nackar!

Guitar 1 during Lead Break (play twice):
    A                                   F               G
E|-----------------------------------|-----------------------------------|
B|-----------------------------------|-----------------------------------|o
G|-----------------------------------|-----------------------------------|
D|-----------------------------------|-----------------------------------|
A|--7-7-7-7-7-7-7-7-7-7-7-7-7-7-7-7--|--3-3-3-3-3-3-3-3-5-5-5-5-5-5-5-5--|o
E|--5-5-5-5-5-5-5-5-5-5-5-5-5-5-5-5--|--1-1-1-1-1-1-1-1-3-3-3-3-3-3-3-3--|
    x x x x x x x x x x x x x x x x     x x x x x x x x x x x x x x x x

Lead (Guitar 2):

E|-----------------------------------|-----------------------------------|
B|-----------------------------------|-----------------------------------|
G|------9-9-----9-9-----9-9-----9-9--|--7b9-----9r7---5-7---5-4----------|
D|--7-7-----7-7-----7-7-----7-7------|------------------------------5----|
A|-----------------------------------|-----------------------------------|
E|-----------------------------------|-----------------------------------|
    x x x x x x x x x x x x x x x x

E|-----------------------------------|-----------------------------------|
B|-----------------------------------|----------------------8------------|
G|------9-9-----9-9-----9-9-----9-9--|--7b9-----9r7---5-7b9---9r7---5----|
D|--7-7-----7-7-----7-7-----7-7------|-----------------------------------|
A|-----------------------------------|-----------------------------------|
E|-----------------------------------|-----------------------------------|
    x x x x x x x x x x x x x x x x

Verse 2 (play four times):
    Guitar 1:
    A                                   F               G
 |-----------------------------------|-----------------------------------|
o|-----------------------------------|-----------------------------------|o
 |-----------------------------------|-----------------------------------|
 |-----------------------------------|-----------------------------------|
o|--7-7-7-7-7-7-7-7-7-7-7-7-7-7-7-7--|--3-3-3-3-3-3-3-3-5-5-5-5-5-5-5-5--|o
 |--5-5-5-5-5-5-5-5-5-5-5-5-5-5-5-5--|--1-1-1-1-1-1-1-1-3-3-3-3-3-3-3-3--|
 |  x x x x x x x x x x x x x x x x     x x x x x x x x x x x x x x x x
 |
 |  Guitar 2:
 |  A                                   F               G
 |-----------------------------------|-----------------------------------|
o|--10----10--------10----10---------|--6-----6---------8-----8----------|o
 |--9-----9---------9-----9----------|--5-----5---------7-----7----------|
 |--7---7-7---7-7-7-7---7-7---7-7-7--|--3---3-3---3-3-3-5---5-5---5-5-5--|
o|--7-----7---------7-----7----------|--3-----3---------5-----5----------|o
 |-----------------------------------|-----------------------------------|
     Skolans uppgift är som sig bör att skola arbetskraften.         Om
     kvastarna skall sopa bra, får man  inte slarva med skaften.
     Spärrar och kvoter och testprogram är ett system för att sålla
     Agnarna från vetet och för var o en till hans rätta

Play pre-chorus + Chorus 2, then:

Rhythm (Guitar 1) during guitar solo (play four times):
    A                                   F               G
 |-----------------------------------|-----------------------------------|
o|-----------------------------------|-----------------------------------|o
 |-----------------------------------|-----------------------------------|
 |-----------------------------------|-----------------------------------|
o|--7-7-7-7-7-7-7-7-7-7-7-7-7-7-7-7--|--3-3-3-3-3-3-3-3-5-5-5-5-5-5-5-5--|o
 |--5-5-5-5-5-5-5-5-5-5-5-5-5-5-5-5--|--1-1-1-1-1-1-1-1-3-3-3-3-3-3-3-3--|
    x x x x x x x x x x x x x x x x     x x x x x x x x x x x x x x x x

Play pre-chorus + Chorus 3 + Lead Break, then:

Verse 3 (play four times):
    Guitar 1:
    A                                   F               G
 |-----------------------------------|-----------------------------------|
o|-----------------------------------|-----------------------------------|o
 |-----------------------------------|-----------------------------------|
 |-----------------------------------|-----------------------------------|
o|--7-7-7-7-7-7-7-7-7-7-7-7-7-7-7-7--|--3-3-3-3-3-3-3-3-5-5-5-5-5-5-5-5--|o
 |--5-5-5-5-5-5-5-5-5-5-5-5-5-5-5-5--|--1-1-1-1-1-1-1-1-3-3-3-3-3-3-3-3--|
 |  x x x x x x x x x x x x x x x x     x x x x x x x x x x x x x x x x
 |
 |  Guitar 2:
 |  A                                   F               G
 |-----------------------------------|-----------------------------------|
o|--10----10--------10----10---------|--6-----6---------8-----8----------|o
 |--9-----9---------9-----9----------|--5-----5---------7-----7----------|
 |--7---7-7---7-7-7-7---7-7---7-7-7--|--3---3-3---3-3-3-5---5-5---5-5-5--|
o|--7-----7---------7-----7----------|--3-----3---------5-----5----------|o
 |-----------------------------------|-----------------------------------|
     Tempot höjs vid maskinerna, här    drillar man eliten.       Produk-
     tionen har inte plats för den som  blivit illa sliten.    Men för att
     ingen skall tro att det är något fel med de tunga ackorden,
     betraktas han som ett sjukdomsfall och behandlas av den barmhärtiga arbets-

Play pre-chorus + Chorus 4, then:

Outro (same as Lead Break):
    Guitar 1:
    A                                   F               G
 |-----------------------------------|-----------------------------------|
o|-----------------------------------|-----------------------------------|o
 |-----------------------------------|-----------------------------------|
 |-----------------------------------|-----------------------------------|
o|--7-7-7-7-7-7-7-7-7-7-7-7-7-7-7-7--|--3-3-3-3-3-3-3-3-5-5-5-5-5-5-5-5--|o
 |--5-5-5-5-5-5-5-5-5-5-5-5-5-5-5-5--|--1-1-1-1-1-1-1-1-3-3-3-3-3-3-3-3--|
 |  x x x x x x x x x x x x x x x x     x x x x x x x x x x x x x x x x
 |
 |  Lead (Guitar 2):
 |-----------------------------------|-----------------------------------|
o|-----------------------------------|-----------------------------------|o
 |------9-9-----9-9-----9-9-----9-9--|--7b9-----9r7---5-7---5-4----------|
 |--7-7-----7-7-----7-7-----7-7------|------------------------------5----|
o|-----------------------------------|-----------------------------------|o
 |-----------------------------------|-----------------------------------|
    x x x x x x x x x x x x x x x x
    Sida    vid     sida                Aaaa-aaaaaa-aaaaa-aaa-aaa-aaaaaah!

                                                     Repeat ad nauseum.

b = bend
v = vibrato bar dip
~ = vibrato
/ = slide up
\ = slide down
h = hammer on
p = pull off
x (inside TAB) = muted note
x (under TAB) = palm muting
            
Submit corrections

comments powered by Disqus
↑ Back to top | Ebba Gron Tabs for Staten Och Kapitalet. Lyrics for acoustic guitar and electric guitar. Tablatures and chords are parodies/interpretations of the original songs. You may use it for private study, scholarship, research or language learning purposes only