» » »

800 Grader Bass tabs (ver.3)

Artists:  A B C D E F G H I J K L M N O P Q R S T U V W X Y Z # 

800 Grader Bass tabs (ver.3)

Ebba Gron
Rating:
0/5 (0 votes)

Hard to play? Try these video lessons and learn fast.
                Intro/Pre verse          X4
G|---------------------|
D|---------------------|
A|-------5--57-777-97--|
E|----555-77-----------|


VERSE               X4
G|------------------|
D|------------------|
A|----------777-97--|
E|----55--77--------|

PRE CHORUS
G|---------------------------------------------------|
D|-------------69-74------------------69-74----------|
A|------------7--5-------------------7--5------------|
E|----55554555------55554555-55554555------55554555--|

Chorus                                X4
G|-------------------------------------|
D|-------------------------------------|
A|----999999--777777----------9999999~-|
E|----------9~------7~7777779~---------|


Thats it, it loops 3 times and then you play
the chorus for like ages :P but it's a good song,
hope you enjoy it :)
            
Hard to play? Try these video lessons and learn fast. | Correct




comments powered by Disqus
↑ Back to top | Tablatures and chords are parodies/interpretations of the original songs. You may use it for private study, scholarship, research or language learning purposes only