>
 >
Screw The Standard 1

Screw The Standard 1 Guitar Tabs

Eatmewhileimhot - Screw The Standard 1 chords, tabs, tablatures, lyrics

Guitar lessons | Add/correct | Request | Top 50 tabs Artists:  A B C D E F G H I J K L M N O P Q R S T U V W X Y Z 0-9

Screw The Standard 1 Guitar Tabs – Eatmewhileimhot

CD, Sheet music, Poster

Do you like Screw The Standard 1? Share with your friends now
TabsTabs v2

Drop C!!

(0:00-0:11)
|-------------------------------------|
|-------------------------------------|
|--555-555-55-555---999-999-9xx9xx9---|
|----------------------------xx-xx----|
|--333-333-33-333---777-777-7xx7xx7---|
|-------------------------------------|

(0:11-0:17)
|-------------------------------------|
|-------------------------------------|
|-------------------------------------|
|-3-33-333-333-3xx--3-33-333-333-3xx--|
|-3-33-333-333-3xx--3-33-333-333-3xx--|
|-3-33-333-333-3xx--3-33-333-333-3xx--|

(0:17-0:23)
|-------------------------------------|
|-------------------------------------|
|--999-999-99-999--999-999-9xx9xxx----|
|---------------------------xx-xxx----|
|--777-777-77-777--777-777-7xx7xxx----|
|-------------------------------------|

(0:23-0:28)
|-------------------------------------|
|-------------------------------------|
|-----------------------------5554----|
|-3-33-333-333-3xx--3-33-333-------5-7|
|-3-33-333-333-3xx--3-33-333--3332-5-7|
|-3-33-333-333-3xx--3-33-333-------5-7|

(0:28-0:34)
|-----------------------------------|
|----------6-666666-----------------|
|----------9-999999-----------------|
|--77-777----------5-555555-777-22-3|
|--77-777----------5-555555-777-22-3|
|--77-777----------5-555555-777-22-3|

(0:34-0:45)
|-----------3-----3-----3-----3-------|x4
|--1h3p1p0----3-----3-----3-----------|
|---------------5-----5-----5---------|
|-------------------------------3-----|
|-------------------------------3-----|
|-------------------------------3-----|

(0:45-0:56)
|-----|x32
|-----|
|-----|
|-000-|
|-000-|
|-000-|

(0:57-0:59)
|---3h5p0----------------------------------|
|---------3p1p0----------------------------|
|---------------2p0------------------------|
|-3-----------------3p2---------2-3--------|
|-3---------------------2h3p2p0-2-3--------|
|-3-----------------------------2-3--------|

(0:59-1:02)
|--3h5p0-----------------------------------|
|--------3p1p0-----------------------------|
|---------------5s4-5s4--------------------|
|------------------------5-7---------------|
|---------------3s2-3s2--5-7---------------|
|------------------------5-7---------------|

(1:02-1:08)
|-----------------------------------------|
|--------6666666--------------------------|
|--------9999999--------------------------|
|--7-7-7---------5-5-5-5--77--22-3--------|
|--7-7-7---------5-5-5-5--77--22-3--------|
|--7-7-7---------5-5-5-5--77--22-3--------|

(1:08-1:17)
|----------3-----3-----3-----3------------|x4
|-1h3p1p0----3-----3-----3-----3----------|
|--------------5-----5-----5--------------|
|----------------------------------3------|
|----------------------------------3------|
|----------------------------------3------|

(1:17-1:19)
|--3h5p0 ------------------|Fourth ending
|--------3p1p0-----0---1---|
|--------------0-----0-----|
|--------------------------|
|--------------------------|
|--------------------------|

(1:19-1:34)
|-----------------------------------------|
|-------(weird feed back)-----------------|
|-----------------------------------------|
|-----------------------------------------|
|-----------------------------------------|
|---7~----9~----3~-----5~-----0~----------|

(1:34-1:42)
|-------------| x4|-------|
|-------------|   |-------|
|-------------|   |-------|
|-------------|   |-------|
|-06-53-53-35-|   |-------|
|-06-53-53-35-|   |--3-5b-|
  .. .. .. ..

(1:43-1:56)
|---------------------------|x4
|---------------------------|
|---------------------------|
|--06-53-53-35---6-53-53-53-|
|--06-53-53-35---6-53-53-53-|
|--06-53-53-35---6-53-53-53-|

(1:56-1:59)
|-----------|
|-----------|
|-----------|
|--5--4--3--|
|--5--4--3--|
|--6--5--4--|

(1:59-2:10)
|-------------------------------|x4
|-------------------------------|
|-------------------------------|
|-000-000-000-000---------------|
|-000-000-000-000-------11--11--|
|-000-000-000-000--3s12---12----|

(2:10-2:14)
|--------------------------------------|
|--------------------------------------|
|--------------------------------------|
|----------------------------12-12-12--|
|----11--11--11--11--11--11--11-11-11--|
|--12--12--12--12--12--12----12-12-12--|

(2:14-2:18)
|---------|
|---------|
|---------|
|-000-000-|
|-000-000-|
|-000-000-|


This all sounds right to me, contact me if you want me to do any other tabs or if you 
a problem with this one!

              nick <3





Comments


Popular Eatmewhileimhot tabs & chords
Mother May I Chords
Mother May I 2 Chords
All My Friends Tabs
Damn Straight Tabs
The Point Tabs
The Point 1 Tabs
When In Rome Tabs
Xburritox Tabs
Xburritox 1 Tabs
Mother May I Ukulele


Song lyrics



↑ Back to top | Tablatures and chords are parodies/interpretations of the original songs. You may use it for private study, scholarship, research or language learning purposes only
© 2014 AZChords.com Contact us | Privacy policy | DMCA | Add/correct tabs | Request tabs | Top 50 tabs