>
 >
Wholl Be The One

Wholl Be The One Guitar Tabs

Easybeats - Wholl Be The One chords, tabs, tablatures, lyrics

Guitar lessons | Add/correct | Request | Top 50 tabs Artists:  A B C D E F G H I J K L M N O P Q R S T U V W X Y Z 0-9

Wholl Be The One Guitar Tabs – Easybeats

CD, Sheet music, Poster

Do you like Wholl Be The One? Share with your friends now
Tabs
------------------------------------------------------------------------

  THE EASYBEATS - WHO'LL BE THE ONE (Vanda/Young) From FRIDAY OF MY MIND 
                  album. Released in 1967.

------------------------------------------------------------------------








All my life I've been searchin'
For someone to love, to love me
Like I love you

I've been there and I've been 'round
I've been lost and I've been found
Still I can't find anyone like you

When you jump so long metter
(Who'll be the one you love)
Maybe be me, wish you could see
There musn't be what you need
(Who'll be the one you love)

There ain't nothing else let me plea
I step lovin' and you don't see
(Who'll be the one you love 
 Who'll be the one you love)

All my nights I've been thinking
Of some way to have you
But I can't wait 'cause I'm not lost for time

Honey it's our time, wait no more
(Who'll be the one you love)
Runnig from London, am I to fall too
Some of our fault is on your frown  
(Who'll be the one you love)

There ain't nothing that you can do
And I got so greased for you
(I'll be the one you love
 I'll be the one you love)

There's a smile upon your face today
You're hearin' everything I say today
You're the girl that's gonna live with me
'Cause I want you. Da da dee a da da da
                   Da da dee a da da da da da dee
                   A  da da da da Ahahahahahahah

Who'll be the one you love
Who'll be the one you love
I'll be the one you love (doo doo doo)
I'll be the one you love (doo doo doo)
I'll be the one you love (doo doo doo)
I'll be the one you love (doo doo doo)






  12/8

                                     
  
e|8----- ------ ------ ------|------ ------ ------ ------|
B|---------------------------|---------------------------|
G|-------5------8------7-----|8------7------8------7-----|
D|---------------------------|---------------------------|
A|---------------------------|---------------------------|
E|---------------------------|---------------------------|




e|8----- ------ ------ ------|------ ------ ------ ------|
B|---------------------------|---------------------------|
G|-------5------8------7-----|8------7------8------7-----|
D|---------------------------|---------------------------|
A|---------------------------|---------------------------|
E|---------------------------|---------------------------|



  
e|------ ------ ------ ------|------ ------ ------ ------|
B|---------------------------|---------------------------|
G|---------------------------|---------------------------|
D|---------------------------|---------------------------|
A|3---3--3---3--3---3--3---3/|6---6--6---6--6---6--6---6-|
E|---------------------------|---------------------------|
  All my     life   I've been searchin'                for
e|------ ------ ------ ------|------ ------ ------ ------|
B|---------------------------|--4------4------4------4---|           
G|--5------5------5------5---|--5------5------5------5---|
D|---------------------------|---------------------------|
A|---------------------------|---------------------------|
E|---------------------------|---------------------------|




  
e|------ ------ ------ ------|------ ------ ------ ------|
B|---------------------------|---------------------------|
G|---------------------------|---------------------------|
D|3---3--3---3--3---3--3---3-|4---4--4---4--4---4--4---4-|
A|---------------------------|---------------------------|
E|---------------------------|---------------------------|
  someone                  to     love,                to 
e|------ ------ ------ ------|------ ------ ------ ------|
B|--6------6------6------6---|--7------7------7------7---|
G|--7------7------7------7---|--7------7------7------7---|
D|---------------------------|--7------7------7------7---|
A|---------------------------|---------------------------|
E|---------------------------|---------------------------|



  
e|------ ------ ------ ------|------ ------ ------ ------|
B|---------------------------|---------------------------|
G|---------------------------|---------------------------|
D|---------------------------|---------------------------|
A|7---7--7---7--7---7--7---7-|7---7--7---7--7---7--7---7\|
E|---------------------------|---------------------------|
  love me                         like   I         love
e|------ ------ ------ ------|------ ------ ------ ------|
B|--5------5------5------5---|--5------5------5------5---|
G|--6------6------6------6---|--6------6------6------6---|
D|--7------7------7------7---|--7------7------7------7---|
A|---------------------------|---------------------------|
E|---------------------------|---------------------------|



  
e|------ ------ ------ ------|------ ------ ------ ------|
B|---------------------------|---------------------------|
G|---------------------------|---------------------------|
D|---------------------------|---------------------------|
A|5---5--5---5--5---5--5---3-|5---5--5---5--5---5--5---5-|
E|---------------------------|---------------------------|
  you
e|------ ------ ------ ------|------ ------ ------ ------|
B|---------------------------|---------------------------|
G|--7------7------7------7---|--7------7------7------7---|
D|---------------------------|---------------------------|
A|---------------------------|---------------------------|
E|---------------------------|---------------------------|  





e|------ ------ ------ ------|------ ------ ------ ------|
B|---------------------------|---------------------------|
G|---------------------------|---------------------------|
D|2--------------------------|---------------------------|
A|3---3--3---3--3---3--3---3/|6---6--6---6--6---6--6---6-|
E|---------------------------|---------------------------|
  I've been  there        and I've been 'round
e|------ ------ ------ ------|------ ------ ------ ------|
B|5--------------------------|4---4----4------4------4---|
G|5---5----5------5------5---|---------------------------|
D|---------------------------|---------------------------|
A|---------------------------|---------------------------|
E|---------------------------|---------------------------|




  
e|------ ------ ------ ------|------ ------ ------ ------|
B|---------------------------|---------------------------|
G|---------------------------|---------------------------|
D|3---3--3---3--3---3--3---3-|4---4--4---4--4---4--4---4-|
A|---------------------------|---------------------------|
E|---------------------------|---------------------------|
  I've been  lost         and I've been  found
e|------ ------ ------ ------|------ ------ ------ ------|
B|6--------------------------|7---7----7------7------7---|
G|7---7----7------7------7---|7--------------------------|
D|---------------------------|---------------------------|
A|---------------------------|---------------------------|
E|---------------------------|---------------------------|



  
e|------ ------ ------ ------|------ ------ ------ ------|
B|---------------------------|---------------------------|
G|---------------------------|---------------------------|
D|---------------------------|---------------------------|
A|7---7--7---7--7---7--7---7-|7---7--7---7--7---7--7---7\|
E|---------------------------|---------------------------|
  Still I    can't  find      anyone            like 
e|------ ------ ------ ------|------ ------ ------ ------|
B|5---5----5------5------5---|--5------5------5------5---|
G|6--------------------------|---------------------------|
D|7--------------------------|---------------------------|
A|---------------------------|---------------------------|
E|---------------------------|---------------------------|



  
e|------ ------ ------ ------|------ ------ ------ ------|
B|---------------------------|---------------------------|
G|---------------------------|---------------------------|
D|---------------------------|---------------------------|
A|5---5--5---5--5---5--5---3-|5---5--5---5--5---5--5---5-|
E|---------------------------|---------------------------|
         you 
e|------ ------ ------ ------|------ ------ ------ ------|
B|---------------------------|---------------------------|
G|7---7--7-7-7---------7-7-7-|7-7-7--7---7--7-7-7--7-7-7-|
D|---------------------------|---------------------------|
A|---------------------------|---------------------------|
E|---------------------------|---------------------------|  




  G
e|3----- 3----- 3---3- 3---3-|3----- 3----- 3----- 3-----|
B|3------3------3---3--3---3-|3------3------3------3-----|
G|4------4------4---4--4---4-|4------4------4------4-----|
D|5------5------5---5--5---5-|5------5------5------5-----|
A|5------5------5---5--5---5-|5------5------5------5-----|
E|3------3------3---3--3---3-|3------3------3------3-----|
  When you   jump             so  long   metter
e|------ 3----- ------ 3-----|------ 3----- ------ 3-----|
B|-------3-------------3-----|-------3-------------3-----|
G|-------4-------------4-----|-------4-------------4-----|
D|-------5-------------5-----|-------5-------------5-----|
A|-------5-------------5-----|-------5-------------5-----|
E|-------3-------------3-----|-------3-------------3-----|





e|3----- 3----- 3----- 3-----|3----- 3----- ------ 3-----|
B|3------3------3------3-----|3------3-------------3-----|
G|4------4------4------4-----|4------4-------------4-----|
D|5------5------5------5-----|5------5-------------5-----|
A|5------5------5------5-----|5------5-------------5-----|
E|3------3------3------3-----|3------3-------------3-----|
  (Who'll       be        the one you    love)
e|3----- ------ 1----- ----3-|------ ------ ------ ------|
B|3-------------1----------3-|3---3------3---------------|
G|---------------------------|0---0------0---------------|
D|---------------------------|---------------------------|
A|---------------------------|---------------------------|
E|---------------------------|---------------------------|



 
e|3----- 3----- 3----- 3-----|3----- 3----- 3----- 3-----|
B|3------3------3------3-----|3------3------3------3-----|
G|4------4------4------4-----|4------4------4------4-----|
D|5------5------5------5-----|5------5------5------5-----|
A|5------5------5------5-----|5------5------5------5-----|
E|3------3------3------3-----|3------3------3------3-----|
  Maybe ,       wish   see    There         what you need
      be me       you           musn't 
                    could            be
e|------ 3----- ------ 3-----|------ 3----- ------ 3-----|
B|-------3-------------3-----|-------3-------------3-----|
G|-------4-------------4-----|-------4-------------4-----|
D|-------5-------------5-----|-------5-------------5-----|
A|-------5-------------5-----|-------5-------------5-----|
E|-------3-------------3-----|-------3-------------3-----|




e|3----- 3----- 3----- 3-----|3----- 3----- ------ 3-----|
B|3------3------3------3-----|3------3-------------3-----|
G|4------4------4------4-----|4------4-------------4-----|
D|5------5------5------5-----|5------5-------------5-----|
A|5------5------5------5-----|5------5-------------5-----|
E|3------3------3------3-----|3------3-------------3-----|
  (Who'll       be        the one you    love)
e|3----- ------ 1----- ----3-|------ ------ ------ ------|
B|3-------------1----------3-|3---3------3---------------|
G|---------------------------|0---0------0---------------|
D|---------------------------|---------------------------|
A|---------------------------|---------------------------|
E|---------------------------|---------------------------|



  D                           G7
e10-----10-----10-----10-----10-----10-----10-----10-----|
B10-----10-----10-----10-----12-----12-----12-----12-----|
G11-----11-----11-----11-----10-----10-----10-----10-----|
D12-----12-----12-----12-----12-----12-----12-----12-----|
A12-----12-----12-----12-----10-----10-----10-----10-----|
E10-----10-----10-----10-----|---------------------------|    
      There                   let me     plea                                                    

         ain't nothing else                                                 


  C                           G7
e|------ ------ ------ ------|------ ------ ------ ------|
B|8------8------8------8-----12-----12-----12-----12-----|
G|9------9------9------9-----10-----10-----10-----10-----|
D10-----10-----10-----10-----12-----12-----12-----12-----|
A10-----10-----10-----10-----10-----10-----10-----10-----|
E|8------8------8------8-----|---------------------------|
      I  step 
             to lovin' and    you don't  see  
e|------ ------ ------ ------|------ ------ ------ ------|
B|---------------------------|---------------------------|
G|---------------------------|-------------------------7-|
D|---------------------------|--------------5------3---7-|
A|---------------------------|--------------5------3---5-|
E|---------------------------|-----------0--3------1-----|
                                            G5     F5  D5



e|-----/10----- 8----- ---10-|6---6- ----6- ------ ------|
B|-----/-7------7----------7-|8---8------8---------------|
G|-----/-7------7----------7-|7---7------7---------------|
D|---------------------------|---------------------------|
A|---------------------------|---------------------------|
E|---------------------------|---------------------------|
        (Who'll be        the one you    love
e|------ ------ ------ ------|------ ------ ------ ------|
B|---------------------------|---------------------------|
G|-------7------7------7-----|-------------------------77|
D|-------7------7------7-----|5------5------5---3------77|
A|-------5------5------5-----|5------5------5---3------55|
E|---------------------------|3------3---0--3---1--------|
                              G5                F5     D5



e|-----/10----- 8----- ---10-|6---6- ----6- ------ ------|
B|-----/-7------7----------7-|5---5------5---------------|
G|-----/-7------7----------7-|5---5------5---------------|
D|---------------------------|---------------------------|
A|---------------------------|---------------------------|
E|---------------------------|---------------------------|
         Who'll be        the one you    love)                  
e|------ ------ ------ ------|------ ------ ------ ------|
B|---------------------------|---------------------------|
G|7------7------7------7-----|-----------3---------------|
D|7------7------7------7-----|--2------------------------|
A|5------5------5------5-----|3--------------------------|                             
E|---------------------------|---------------------------|          



  X X X  X X X  X X X  X X X

e|------ ------ ------ ------|
B|---------------------------|
G|---------------------------|
D|---------------------------|
A|---------------------------|
E|---------------------------|




e|------ ------ ------ ------|------ ------ ------ ------|
B|--3------3------3------3---|--3------3------3------0---|
G|0---0--0---0--0---0--0---0-|0---0--0---0--0---0--0-----|
D|---------------------------|---------------------------|
A|---------------------------|---------------------------|
E|---------------------------|---------------------------|     




e|------ ------ ------ ------|------ ------ ------ ------|
B|---------------------------|---------------------------|
G|---------------------------|---------------------------|
D|---------------------------|---------------------------|
A|3---3--3---3--3---3--3---3/|6---6--6---6--6---6--6---6-|
E|---------------------------|---------------------------|
  All my     nights I've been thinking                 Of
e|------ ------ ------ ------|------ ------ ------ ------|
B|---------------------------|4---4----4------4------4---|
G|5---5----5------5------5---|---------------------------|
D|---------------------------|---------------------------|
A|---------------------------|---------------------------|
E|---------------------------|---------------------------|




  
e|------ ------ ------ ------|------ ------ ------ ------|
B|---------------------------|---------------------------|
G|---------------------------|---------------------------|
D|3---3--3---3--3---3--3---3-|4---4--4---4--4---4--4---4-|
A|---------------------------|---------------------------|
E|---------------------------|---------------------------|
  some way                 to have you                 But
e|------ ------ ------ ------|------ ------ ------ ------|
B|6---6----6-------------6---|7---7----7------7------7---|
G|7--------------------------|---------------------------|
D|---------------------------|---------------------------|
A|---------------------------|---------------------------|
E|---------------------------|---------------------------|



  
e|------ ------ ------ ------|------ ------ ------ ------|
B|---------------------------|---------------------------|
G|---------------------------|---------------------------|
D|---------------------------|---------------------------|
A|7---7--7---7--7---7--7---7-|7---7--7---7--7---7--7---7\|
E|---------------------------|---------------------------|
  I   can't  wait        'cause I'm not  lost   for 
e|------ ------ ------ ------|------ ------ ------ ------|
B|--5------5-------------5---|--5------5------5------5---|
G|---------------------------|---------------------------|
D|---------------------------|---------------------------|
A|---------------------------|---------------------------|
E|---------------------------|---------------------------|



  
e|------ ------ ------ ------|------ ------ ------ ------|
B|---------------------------|---------------------------|
G|---------------------------|---------------------------|
D|---------------------------|---------------------------|
A|5---5--5---5--5---5--5---5-|5---5--5---5--5---5--5---5-|
E|---------------------------|---------------------------|
  time
e|------ ------ ------ ------|------ ------ ------ ------|
B|3---3----3-------------3---|--3------3------3------3---|
G|---------------------------|---------------------------|
D|---------------------------|---------------------------|
A|---------------------------|---------------------------|
E|---------------------------|---------------------------|  





e|------ ------ ------ ------|------ ------ ------ ------|
B|---------------------------|---------------------------|
G|7---7--7---7--7---7--7---7-|7---7--7---7--7---7--7---7-|
D|---------------------------|---------------------------|
A|5---5--5---5--5---5--5---5-|5---5--5---5--5---5--5---5-|
E|---------------------------|---------------------------|

e|17---- ------ 17---- ------|17---- ------ 17---- ------|
B|---------------------------|---------------------------|
G|---------------------------|---------------------------|
D|---------------------------|---------------------------|
A|---------------------------|---------------------------|
E|---------------------------|---------------------------|     



  G
e|3----- 3----- 3---3- 3---3-|3----- 3----- 3---3- 3-----|
B|3------3------3---3--3---3-|3------3------3---3--3-----|
G|4------4------4---4--4---4-|4------4------4---4--4-----|
D|5------5------5---5--5---5-|5------5------5---5--5-----|
A|5------5------5---5--5---5-|5------5------5---5--5-----|
E|3------3------3---3--3---3-|3------3------3---3--3-----|
  Honey                       Wait no    more
    it's our time
e|------ 3----- ------ 3-----|------ 3----- ------ 3-----|
B|-------3-------------3-----|-------3-------------3-----|
G|-------4-------------4-----|-------4-------------4-----|
D|-------5-------------5-----|-------5-------------5-----|
A|-------5-------------5-----|-------5-------------5-----|
E|-------3-------------3-----|-------3-------------3-----|





e|3----- 3----- 3----- 3-----|3----- 3----- 3---3- 3-----|
B|3------3------3------3-----|3------3------3---3--3-----|
G|4------4------4------4-----|4------4------4---4--4-----|
D|5------5------5------5-----|5------5------5---5--5-----|
A|5------5------5------5-----|5------5------5---5--5-----|
E|3------3------3------3-----|3------3------3---3--3-----|
  (Who'll       be        the one you    love)
e|3----- ------ 1----- ----3-|------ ------ ------ ------|
B|3-------------1----------3-|3---3------3---------------|
G|---------------------------|0---0------0---------------|
D|---------------------------|---------------------------|
A|---------------------------|---------------------------|
E|---------------------------|---------------------------|



                G7            G
e|3---3- 3----- 3---3- 3-----|3----- 3----- 3----- 3-----|
B|3---3--3------6---6--6-----|3------3------3------3-----|
G|4---4--4------4---4--4-----|4------4------4------4-----|
D|5---5--5------5---5--5-----|5------5------5------5-----|
A|5---5--5------5---5--5-----|5------5------5------5-----|
E|3---3--3------3---3--3-----|3------3------3------3-----|
  Runnig ,      am I to 
    from London        fall too
                              Some of 
                                  our fault 
                                         is on  your   frown  
e|------ 3----- ------ 3---3-|------ 3----- ------ 3-----|
B|-------3-------------6---6-|-------6-------------6-----|
G|-------4-------------4---4-|-------4-------------4-----|
D|-------5-------------5---5-|-------5-------------5-----|
A|-------5-------------5---5-|-------5-------------5-----|
E|-------3-------------3---3-|-------3-------------3-----|




e|3----- 3----- 3----- 3-----|3----- 3----- ------ 3-----|
B|3------3------3------3-----|3------3-------------3-----|
G|4------4------4------4-----|4------4-------------4-----|
D|5------5------5------5-----|5------5-------------5-----|
A|5------5------5------5-----|5------5-------------5-----|
E|3------3------3------3-----|3------3-------------3-----|
  (Who'll       be        the one you    love)
e|3----- ------ 1----- ----3-|------ ------ ------ ------|
B|3-------------1----------3-|3---3------3---------------|
G|---------------------------|0---0------0---------------|
D|---------------------------|---------------------------|
A|---------------------------|---------------------------|
E|---------------------------|---------------------------|



  D                           G7
e10-----10-----10-----10-----10-----10-----10-----10-----|
B10-----10-----10-----10-----12-----12-----12-----12-----|
G11-----11-----11-----11-----10-----10-----10-----10-----|
D12-----12-----12-----12-----12-----12-----12-----12-----|
A12-----12-----12-----12-----10-----10-----10-----10-----|
E10-----10-----10-----10-----|---------------------------|
      There 
         ain't nothing that   you can    do

  C7                          G7                           
e|------ ------ ------ ------|------ ------ ------ ------|
B11-----11-----11-----11-----12-----12-----12-----12-----|
G|9------9------9------9-----10-----10-----10-----10-----|
D10-----10-----10-----10-----12-----12-----12-----12-----|
A10-----10-----10-----10-----10-----10-----10-----10-----|
E|8------8------8------8-----|---------------------------|
     And I   got    so    greased for    you
e|------ ------ ------ ------|------ ------ ------ ------|
B|---------------------------|---------------------------|
G|---------------------------|-------------------------7-|
D|---------------------------|--------------5------3---7-|
A|---------------------------|--------------5------3---5-|
E|---------------------------|-----------0--3------1-----|
                                            G5     F5  D5



e|-----/10----- 8----- ---10-|6---6- ----6- ------ ------|
B|-----/-7------7----------7-|8---8------8---------------|
G|-----/-7------7----------7-|7---7------7---------------|
D|---------------------------|---------------------------|
A|---------------------------|---------------------------|
E|---------------------------|---------------------------|
        (I'll   be        the one you    love
e|------ ------ ------ ------|------ ------ ------ ------|
B|---------------------------|---------------------------|
G|-------7------7------7-----|-------------------------77|
D|-------7------7------7-----|5------5------5---3------77|
A|-------5------5------5-----|5------5------5---3------55|
E|---------------------------|3------3---0--3---1--------|
                              G5                F5     D5



e|-----/10----- 8----- ---10-|6---6- ----6- ------ ------|
B|-----/-7------7----------7-|5---5------5---------------|
G|-----/-7------7----------7-|5---5------5---------------|
D|---------------------------|---------------------------|
A|---------------------------|---------------------------|
E|---------------------------|---------------------------|
         I'll   be        the one you    love)
e|------ ------ ------ ------|------ ------ ------ ------|
B|---------------------------|---------------------------|
G|7------7------7------7-----|-----------3---------------|
D|7------7------7------7-----|--2------------------------|
A|5------5------5------5-----|3--------------------------|
E|---------------------------|---------------------------|



  X X X  X X X  X X X  X X X

e|------ ------ ------ ------|
B|---------------------------|
G|---------------------------|
D|---------------------------|
A|---------------------------|
E|---------------------------|                               



  D                           G7
e10-----10-----10-----10-----10-----10-----10-----10-----|
B10-----10-----10-----10-----12-----12-----12-----12-----|
G11-----11-----11-----11-----10-----10-----10-----10-----|
D12-----12-----12-----12-----12-----12-----12-----12-----|
A12-----12-----12-----12-----10-----10-----10-----10-----|
E10-----10-----10-----10-----|---------------------------|
         There's 
             a  smile upon your 
                              face today
e|------ ------ ------ ------|------ ------ ------ ------|
B|---------------------------|---------------------------|
G|---------------------------|---------------------------|
D|--------------4---5--7-----|--------------2---4--5-----|
A|5----------5-------------3-|-----------3-------------5-|
E|---------------------------|---------------------------|



  C7                          G7
e|------ ------ ------ ------|------ ------ ------ ------|
B11-----11-----11-----11-----12-----12-----12-----12-----|
G|9------9------9------9-----10-----10-----10-----10-----|
D10-----10-----10-----10-----12-----12-----12-----12-----|
A10-----10-----10-----10-----10-----10-----10-----10-----|
E|8------8------8------8-----|---------------------------|
      You're 
         hearin' everything I    say today
e|------ ------ ------ ------|------ ------ ------ ------|
B|---------------------------|---------------------------|
G|---------------------------|---------------------------|
D|--------------4---5--7-----|--------------2---4--5-----|
A|5----------5-------------3-|-----------3-------------7-|
E|---------------------------|-------------------------7-|



  Em                          C7
e|7----- 7----- 7----- 7-----|8----- 8----- 8----- 8-----|
B|8------8------8------8-----11-----11-----11-----11-----|
G|9------9------9------9-----|9------9------9------9-----|
D|9------9------9------9-----|8------8------8------8-----|
A|7------7------7------7-----10-----10-----10-----10-----|
E|---------------------------|8------8------8------8-----|
         You're 
            the girl that's
                       gonna  live with  me
e|7----- ------ ------ ------|8----- ------ ------ ------|
B|8--------------------------|8--------------------------|
G|9--------------------------|9--------------------------|
D|9-----------------------10-10--------------------------|
A|7-----------------------10-10--------------------------|
E|-------------------------8-|8--------------------------|



  
  D7
e10----- ------ ------ ------|
B13--------------------------|
G11--------------------------|
D10--------------------------|
A12--------------------------|
E10--------------------------|  
     'Cause 
         I   want   you
e|------ ------ ------ ------|
B|3--------------------------|
G|5--------------------------|
D|4--------------------------|
A|5--------------------------|
E|---------------------------|  


                             
  G
e|3----- ------ ------ ------|------ ------ ------ ------|          
B|3--------------------------|---------------------------|
G|4--------------------------|---------------------------|
D|5--------------------------|---------------------------|
A|5--------------------------|---------------------------|
E|3--------------------------|---------------------------|
  Da     da  deea   da da  da da     da  deea   da da  da 
e|------ ------ ------ ------|------ ------ ------ ------|
B|---------------------------|---------------------------|
G|---------------------------|---------------------------|
D|---------------------------|---------------------------|
A|3B5----5---5-R3---1------1-|3B4----3B4-4-R3---1------1-|
E|---------------------3-----|---------------------3-----|





e|------ ------ ------ ------|------ 7-7-7- 7-7-7- 7-7-7-|
B|---------------------------|-------6-6-6--6-6-6--6-6-6-|
G|---------------------------|-------7-7-7--7-7-7--7-7-7-|
D|----3----------------------|---------------------------|
A|3/5--------5-\3---1--------|---------------------------|
E|---------------------3---1-|3--------------------------|
  Da  da     deea  da  da  da da     Ahahah ahahah ahahah
e|------ ------ ------ ------|------ ------ ------ ------|
B|---------------------------|---------------------------|
G|---------------------------|-------------------------77|
D|---------------------------|-------------------------77|
A|---------------------------|-------------------------55|
E|---------------------------|---------------------------|
                                                       D5


  D                           G7
e10-----10-----10-----10-----10-----10-----10-----10-----|
B10-----10-----10-----10-----12-----12-----12-----12-----|
G11-----11-----11-----11-----10-----10-----10-----10-----|
D12-----12-----12-----12-----12-----12-----12-----12-----|
A12-----12-----12-----12-----10-----10-----10-----10-----|
E10-----10-----10-----10-----|---------------------------|
         Who'll be        the one you love
         Who'll be        the one you love
e|------ ------ ------ ------|------ ------ ------ ------|
B|---------------------------|---------------------------|
G|7--------------------------|-------------------------7-|
D|7--------------------------|--------------5---3------7-|
A|5--------------------------|--------------5---3------5-|   
E|---------------------------|--------------3---1--------|
                                            G5  F5     D5


  D                           G7
e10-----10-----10-----10-----10-----10-----10-----10-----|
B10-----10-----10-----10-----12-----12-----12-----12-----|
G11-----11-----11-----11-----10-----10-----10-----10-----|
D12-----12-----12-----12-----12-----12-----12-----12-----|
A12-----12-----12-----12-----10-----10-----10-----10-----|
E10-----10-----10-----10-----|---------------------------|
         Who'll be        the one you love
         Who'll be        the one you love
e|------ ------ ------ ------|------ ------ ------ ------|
B|---------------------------|---------------------------|
G|---------------------------|---------------------------|
D|---------------------------|--------------5---3------2-|
A|---------------------------|--------------5---3------2-|   
E|---------------------------|--------------3---1------0-|
                                            G5  F5     E5


  E                           A
e|0----- 0----- 0----- 0-----|0----- 0----- 0----- 0-----|
B|0------0------0------0-----|2------2------2------2-----|
G|1------1------1------1-----|2------2------2------2-----|
D|2------2------2------2-----|2------2------2------2-----|
A|2------2------2------2-----|0------0------0------0-----|
E|0------0------0------0-----|---------------------------|
         I'll   be        the one you    love
                          the one you    love   doodoo doo
e|------ ------ ------ ------|------ ------ ------ ------|
B|---------------------------|---------------------------|
G|---------------------------|---------------------------|
D|---------------------------|7-------------7------5---2-|
A|---------------------------|7-------------7------5---2-|
E|---------------------------|5-------------5------3---0-|
                              A5                   G5  E5


  E                           A
e|0----- 0----- 0----- 0-----|0----- 0----- 0----- 0-----|
B|0------0------0------0-----|2------2------2------2-----|
G|1------1------1------1-----|2------2------2------2-----|
D|2------2------2------2-----|2------2------2------2-----|
A|2------2------2------2-----|0------0------0------0-----|
E|0------0------0------0-----|---------------------------|
         I'll   be        the one you    love
                          the one you    love   doodoo doo
e|------ ------ ------ ------|------ ------ ------ ------|
B|---------------------------|---------------------------|
G|---------------------------|---------------------------|
D|---------------------------|7-------------7------5---2-|
A|---------------------------|7-------------7------5---2-|
E|---------------------------|5-------------5------3---0-|
                              A5                   G5  E5


  E                           A
e|0----- 0----- 0----- 0-----|0----- 0----- 0----- 0-----|
B|0------0------0------0-----|2------2------2------2-----|
G|1------1------1------1-----|2------2------2------2-----|
D|2------2------2------2-----|2------2------2------2-----|
A|2------2------2------2-----|0------0------0------0-----|
E|0------0------0------0-----|---------------------------|
         I'll   be        the one you    love
                          the one you    love   doodoo doo
e|------ ------ ------ ------|------ ------ ------ ------|
B|---------------------------|---------------------------|
G|---------------------------|---------------------------|
D|---------------------------|7-------------7------5---2-|
A|---------------------------|7-------------7------5---2-|
E|---------------------------|5-------------5------3---0-|
                               A5                   G5  E5                      
  .......................Fade out........................



e|0----- 0----- 0----- 0-----|0----- 0----- 0----- 0-----|
B|0------0------0------0-----|2------2------2------2-----|
G|1------1------1------1-----|2------2------2------2-----|
D|2------2------2------2-----|2------2------2------2-----|
A|2------2------2------2-----|0------0------0------0-----|
E|0------0------0------0-----|---------------------------|
          I'll   be        the one you    love
                           the one you    love   doodoo doo
e|------ ------ ------ ------|------ ------ ------ ------|
B|---------------------------|---------------------------|
G|---------------------------|---------------------------|
D|---------------------------|7-------------7------5---2-|
A|---------------------------|7-------------7------5---2-|
E|---------------------------|5-------------5------3---0-|
                               A5                   G5  E5
  .......................................................









        B  Bend
        R  Release
        /  Slide up
        \  Slide down
        H  Hammer-on
        P  Pull-off
        ~  Vibrato
        +  Harmonic
        x  Mute note
        .  Play note like a dot in standard notation
        ^  Ties two notes together
        (. Pause





Comments


Popular Easybeats tabs & chords
Cry Cry Cry Bass Tabs
Friday On My Mind 4 Bass Tabs
Friday On My Mind Chords
Friday On My Mind 2 Chords
Sorry Chords
Friday On My Mind Tabs
Goodtimes Tabs
Ill Make You Happy 1 Tabs
Pretty Girl Tabs
Friday On My Mind Ukulele


Song lyrics



↑ Back to top | Tablatures and chords are parodies/interpretations of the original songs. You may use it for private study, scholarship, research or language learning purposes only
© 2014 AZChords.com Contact us | Privacy policy | DMCA | Add/correct tabs | Request tabs | Top 50 tabs