» » »

East West, Zero Hour Tabs (ver.1)

Artists:  A B C D E F G H I J K L M N O P Q R S T U V W X Y Z # 

Zero Hour Tabs (ver.1)

East West Tabs
 Rating:
4/5 (4 votes)
Zero Hour lessons Tabs too difficult? Try these video lessons and learn fast
                c2004 Floodgate Records

A great song by the little known hard rock band, check out all of their
cds, Hope In Anguish, The Light In Guinevere's Garden, and Vintage!

Drop B tuning

Verses:

C#------------------------------------------|
G#------------------------------------------|
E-------------------------------------------|
B-------------------------------------------|
F#-0-3-5-7-8-0-3-5-7-8-0-3-5-7-8-0-3-5-7-10-|
B-------------------------------------------|

Do that a couple of times...

First Chorus

C#---------------------------------------------------------------------|
G#---------------------------------------------------------------------|
E----------------------------------------------------------------------|
B--8-8-8-8-8-8-8-8-3-3-3-3-3-3-3-8-8-8-8-8-8-8-8-3-3-3-3-3-3-3-0-3-5-5-|
F#-8-8-8-8-8-8-8-8-3-3-3-3-3-3-3-8-8-8-8-8-8-8-8-3-3-3-3-3-3-3-0-3-5-5-|
B--8-8-8-8-8-8-8-8-3-3-3-3-3-3-3-8-8-8-8-8-8-8-8-3-3-3-3-3-3-3-0-3-5-5-|

another verse...

Second Chorus

C#------------------------------------------------------|
G#------------------------------------------------------|
E-------------------------------------------------------|
B--8-8-8-8-8stop-7-7-7-7-7stop-12-12-12-12-12-3-3-3-3-3-|
F#-8-8-8-8-8stop-7-7-7-7-7stop-12-12-12-12-12-3-3-3-3-3-|
B--8-8-8-8-8stop-7-7-7-7-7stop-12-12-12-12-12-3-3-3-3-3-|

a couple times...

Bridge

C#---------------------------|
G#---------------------------|
E----------------------------|
B--0-7-5-0-5-0-3-0-3-3-5-3-0-|
F#-0-7-5-0-5-0-3-0-3-3-5-3-0-|
B--0-7-5-0-5-0-3-0-3-3-5-3-0-|

then they pick it on the C# string...

C#-0-7-5-0-5-0-3-0-3-3-5-3-0-|
G#---------------------------|
E----------------------------|
B----------------------------|
F#---------------------------|
B----------------------------|

then, basically, you just play the second chorus several times,
without the stops in it.

end on...

C#-----------|
G#-----------|
E------------|
B--8-8-8-8-8-|
F#-8-8-8-8-8-|
B--8-8-8-8-8-|

And that should be about it! Have fun with this, easy song to play!
            
Submit corrections

comments powered by Disqus
↑ Back to top | East West Tabs for Zero Hour. Lyrics for acoustic guitar and electric guitar. Tablatures and chords are parodies/interpretations of the original songs. You may use it for private study, scholarship, research or language learning purposes only