» » »

East West, Closure Tabs (ver.2)

Artists:  A B C D E F G H I J K L M N O P Q R S T U V W X Y Z # 

Closure Tabs (ver.2)

East West Tabs
 Rating:
4/5 (4 votes)
Closure lessons Tabs too difficult? Try these video lessons and learn fast
                The Tuning is Drop B. It's B-F#-B-E-G#-C#.

In the intro part of this, he uses some kind of weird effect, with a wah pedal I think.

Intro/Chorus:
C#--------------------------------------|
G#--------------------------------------|
E---------------------------------------|
B---0---0--0-0---0-0--3---3--3-3--3/5---|
F#--0---0--0-0---0-0--3---3--3-3--3/5---|
B---0---0--0-0---0-0--3---3--3-3--3/5---|

Verse 2:
I am pretty sure this is what he does...he uses a wah and some kind of
weird effect for it however.
C#-------------------|
G#-------------------|
E--------------------|
B--15--15--15--15-17-|
F#-15--15--15--15-17-|
B--15--15--15--15-17-| (Play 3 times then...)

C#-----------------------------------|
G#-----------------------------------|
E------------------------------------|
B--15--15--15-15-15-15-15-15-15/17\--|
F#-15--15--15-15-15-15-15-15-15/17\--|
B--15--15--15-15-15-15-15-15-15/17\--|
            *  *  *  *  *  *
(* means palm mute)

After verse 2, go back to the chorus a couple times

Solo:
C#--------------------------------------------------|
G#--------------------------------------------------|
E-------14------10---17---10------14------------12--|
B---12------12----------------12------12---10-------|
F#--------------------------------------------------|
B---------------------------------------------------|

C#----------------------------------------------------------|
G#----------------------------------------------------------|
E-------14------10---17---10------14------------12----------|
B---12------12----------------12------12---10-------10---5--|
F#----------------------------------------------------------|
B-----------------------------------------------------------|


Bridge: (Played sort of fast many times)
C#----------------------------|
G#----------------------------|
E-----------------------------|
B---0-0-0-1-0-0-0-0-2-0-0-1---|
F#--0-0-0-1-0-0-0-0-2-0-0-1---|
B---0-0-0-1-0-0-0-0-2-0-0-1---|


Then go back to the chorus and play through til the end, and end on:
C#---
G#---
E----
B--0-
F#-0-
B--0-
            
Submit corrections

comments powered by Disqus
↑ Back to top | East West Tabs for Closure. Lyrics for acoustic guitar and electric guitar. Tablatures and chords are parodies/interpretations of the original songs. You may use it for private study, scholarship, research or language learning purposes only