» » »

Earthtone9, Enertia 64800 Tabs (ver.2)

Artists:  A B C D E F G H I J K L M N O P Q R S T U V W X Y Z # 

Enertia 64800 Tabs (ver.2)

Earthtone9 Tabs
 Rating:
4/5 (4 votes)
Enertia 64800 lessons Tabs too difficult? Try these video lessons and learn fast
1
                (4)
Tuning: Standard
          An echo effect would sound good for the clean tone in this song.
          
          
          Riff 1:
          Intro and verse:
          e|-------------------------------------------------|
          B|-------------------------------------------------|
          G|-------------------------------------------------|
          D|-------------------------------------------------|
          A|-------15-------15-------16-------16-------16-15-|
          E|-13-13----13-13----13-13----13-13----13-13-------|
          
          Riff 2:
          e|---------------------------------------------------------------------|
          B|---------------------------------------------------------------------|
          G|---------------------------------------------------------------------|
          D|---------------------------------------------------------------------|
          A|---------------------------------------------------------------------|
          E|13-13-13-13-13-13-13-15-15-15-15-13-13-13-15-15-15-13-13-13-15-15-16-|
          
          Riff3
          Chorus part1: Distortion
          woooooooooo, wooooo woooooo wooooo, darken my eyes
          ...so i will never be...hollow my heart...so i am free... 
          e|----------------------------------------------------------------|
          B|----------------------------------------------------------------|
          G|----------------------------------------------------------------|
          D|-10-10-10-10-10-10-10-10-10-10-10-10----------------------------|
          A|-10-10-10-10-10-10-10-10-10-10-10-10-repeat for first wooooooooo|
          E|-8--8--8--8--8--8--8--8--8--8--8--8-----------------------------|
          
          Chorus part2: 
          e|----------------------------------------------------------|
          B|----------------------------------------------------------|
          G|----------------------------------------------------------|
          D|-10-10-10-10-10-10-10-13-13-13-13-13-13-13-13-13-13-13-13-|
          A|-10-10-10-10-10-10-10-13-13-13-13-13-13-13-13-13-13-13-13-|
          E|-8--8--8--8--8--8--8--11-11-11-11-11-11-11-11-11-11-11-11-|
          
          Riff4:
          After Chorus:
          e|--------------------------------------|
          B|-11/12-12-12-12-11/12-12-12-12-11/12/-|
          G|-11/12-12-12-12-11/12-12-12-12-11/12/-|
          D|--------------------------------------|
          A|--------------------------------------|
          E|--------------------------------------|
          
          Riff5:
          e|-------------------|
          B|-------------------|
          G|-------------------|
          D|-4/5-5-5/4/5-5-5/1-|
          A|-4/5-5-5/4/5-5-5/1-|
          E|-4/5-5-5/4/5-5-5/1-|
          
          Riff6:
          e|-----------------------------|
          B|-----------------------------|
          G|-----------------------------|
          D|-----------------------------|
          A|-----------------------------|
          E|-8-6-9-9-9-9-8-6-11-13-13-13-|
          
          Order of song:
          
          riff1 x12
          riff2 x1
          riff1 x4
          riff2 x1
          Chorus part1 x1
          Chorus part2 x3
          Riff4 x2
          Music stops (gap)
          Riff1 x12 
          riff 2 x 1
          riff 1 x
          riff 2 x1
          chorus part1 x1
          chorus part2 x3
          riff4 x4
          riff5 x4
          riff6 x2
          riff5 x4
          riff6 x2
          riff5 x4
          chorus part2 x4
          riff4 x4
          End
            
Submit corrections

comments powered by Disqus
↑ Back to top | Earthtone9 Tabs for Enertia 64800. Lyrics for acoustic guitar and electric guitar. 1 Tablatures and chords are parodies/interpretations of the original songs. You may use it for private study, scholarship, research or language learning purposes only