» » »

Earth Crisis, Firestorm Tabs (ver.1)

Artists:  A B C D E F G H I J K L M N O P Q R S T U V W X Y Z # 

Firestorm Tabs (ver.1)

Earth Crisis Tabs
 Rating:
4/5 (4 votes)
Firestorm lessons Tabs too difficult? Try these video lessons and learn fast
1
                "The Oath That Keeps Me Free" (1998)

Intro: (they sing verses in the intro for a little bit)

E|-------------------------------------------|
B|-------------------------------------------|
G|-------------------------------------------|
D|-------------------------------------  x 8-|
A|-0-0--0-0--0-0--0-0--0000000000000000------|
E|-0-0--0-0--0-0--0-0--0000000000000000------|
PM.....................................

Verses

No mercy no exceptions, a declaration of total war....

E|--------------------------|
B|--------------------------|
G|--------------------  x 8-|
D|---------3-3-3-3h5-5------|
A|-0-0-0-0-303-303h5-5------|
E|-0-0-0-0--0---0-----------|
PM........  .   .

Chorus:

Born addicted, beaten, and neglected.
E|----------------------|
B|----------------------|
G|----------------------|
D|----------------------|  x 4
A|-7~0-3~--7~0-5~5-3----|
E|-7~0-3~--7~0-5~5-3----|
PM   .       .

(Back to verses)
E|--------------------------|
B|--------------------------|
G|--------------------  x 8-|
D|---------3-3-3-3h5-5------|
A|-0-0-0-0-303-303h5-5------|
E|-0-0-0-0--0---0-----------|
PM........  .   .

Chorus:

E|----------------------|
B|----------------------|
G|----------------------|
D|----------------------|  x 4
A|-7~0-3~--7~0-5~5-3----|
E|-7~0-3~--7~0-5~5-3----|
PM   .       .


E|---
B|---
G|---
D|-0~
A|-0~
E|-0~

(Back to verses with a slight change)

E|--------------------------------------------------|
B|--------------------------------------------------|
G|--------------------------------------------------|
D|---------5-------5h7-7---------3-------3h5-5  x 4-|
A|-0-0-0-0-5-0-0-0-5h7-7-0-0-0-0-3-0-0-0-3h5-5------|
E|-0-0-0-0---0-0-0-------0-0-0-0---0-0-0------------|
PM........   .....       .......   .....

E|---
B|---
G|---
D|-0~
A|-0~
E|-0~

(Back to intro)

E|-------------------------------------------|
B|-------------------------------------------|
G|-------------------------------------------|
D|-------------------------------------  x 8-|
A|-0-0--0-0--0-0--0-0--0000000000000000------|
E|-0-0--0-0--0-0--0-0--0000000000000000------|
PM.....................................

The End.

Very easy song. Also there are a few powerslides in the beginning I think you can figure 
out yourself.
There is also some twanging around at the end but I don't think that's neccessary to tab.
            
Submit corrections

comments powered by Disqus
↑ Back to top | Earth Crisis Tabs for Firestorm. Lyrics for acoustic guitar and electric guitar. 1 Tablatures and chords are parodies/interpretations of the original songs. You may use it for private study, scholarship, research or language learning purposes only