» » »

Early November, Open Eyes Tabs (ver.2)

Artists:  A B C D E F G H I J K L M N O P Q R S T U V W X Y Z # 

Open Eyes Tabs (ver.2)

Early November Tabs
 Rating:
4/5 (4 votes)
Open Eyes lessons Tabs too difficult? Try these video lessons and learn fast
1
                standard tuning

Intro
E-----------------------------------------------------------------------------------------------------------------------------------
B-----------------------------------------------------------------------------------------------------------------------------------
G-----------6------------6-----------6-----------6-----------------6------------6----------6----------------6----------6------
D--------6-----6------------6-----------6-----------6----------6-----6-------------6----------6--------6------6------6------
A--2/4-----------------------------------------------------2/4------------------------------------------------------------4------
E-------------------4/6-----------4----------2-----------------------------4/6----------4-----------2------------------2------


Verse
E------------------------------------------------------------------------------------------------------------------------------------
B------------------------------------------------------------------------------------------------------------------------------------
G---6---6----6---6---8---6-------6666----6666--------------------6----6---------------------------------------------------
D---6---6----6---6---8---6-------6666----6666--------------------6----6---------------------------------------------------
A---4---4----x---4---6---4-------4444----4444-------4----4------4----4---------------------------------------------------
E--------4----6---4---------------------------4444-------4----2-----------4---------------------------------------------------


Chorus
E------------------------------------------------------------------------------------------------------------------------------------
B------------------------------------------------------------------------------------------------------------------------------------
G---6----6--------------6-----6---------------------------------------------------------------------------------------------------
D---6----6--------------6-----6---------------------------------------------------------------------------------------------------
A---4----4--(12x)-----4-----4--(12x)------------------------------------------------------------------------------------------
E---2----4--------------4-----2---------------------------------------------------------------------------------------------------


Bridge                          End on
E------------------------------------------------------------------------------------------------------------------------------------
B------------------------------------------------------------------------------------------------------------------------------------
G---6-----6-----6--------------------6--------------------------------------------------------------------------------------------
D---6-----6-----6--------------------6--------------------------------------------------------------------------------------------
A---x-----4-----4--------------------4---let it ring-----------------------------------------------------------------------------
E---6-----4-----2--------------------2--------------------------------------------------------------------------------------------
            
Submit corrections

comments powered by Disqus
↑ Back to top | Early November Tabs for Open Eyes. Lyrics for acoustic guitar and electric guitar. 1 Tablatures and chords are parodies/interpretations of the original songs. You may use it for private study, scholarship, research or language learning purposes only