» » »

Early November, Make It Happen Tabs (ver.3)

Artists:  A B C D E F G H I J K L M N O P Q R S T U V W X Y Z # 

Make It Happen Tabs (ver.3)

Early November Tabs
 Rating:
4/5 (4 votes)
Make It Happen lessons Tabs too difficult? Try these video lessons and learn fast
1
                ------------------------------------
Make It Happen - The Early November
Acoustic EP
------------------------------------

Tuning: Drop C#

INTRO/VERSE

D#|------------------------------------------|
A#|------------------------------------------|
F#|--4-4--4444--444-444--4-4--4444--444-444--|
C#|--4-4--4444--444-444--4-4--4444--444-444--|
G#|--2-2--2222--222-222--x-x--xxxx--xxx-xxx--|
C#|--x-x--xxxx--xxx-xxx--4-4--4444--444-666--|

D#|------------------------------------------|
A#|------------------------------------------|
F#|--4-4--4444--444-444--4-4--4444--444-444--|
C#|--4-4--4444--444-444--4-4--4444--444-444--|
G#|--x-x--xxxx--xxx-xxx--x-x--xxxx--xxx-xxx--|
C#|--2-2--2222--222-222--4-4--4444--444-666--|

CHORUS

D#|------------------|
A#|------------------|
F#|--4~--4~--4~--4~--|
C#|--4~--4~--4~--4~--|
G#|--2~--x~--2~--x~--|
C#|--x~--4~--x~--4~--|

D#|--------------------------------------|
A#|--------------------------------------|
F#|--4444444444444444--4444444444444444--|
C#|--4444444444444444--4444444444444444--|
G#|--2222222222222222--xxxxxxxxxxxxxxxx--|
C#|--xxxxxxxxxxxxxxxx--4444444444444444--|

D#|--------------------------------------|
A#|--------------------------------------|
F#|--4444444444444444--4444444444444444--|
C#|--4444444444444444--4444444444444444--|
G#|--2222222222222222--xxxxxxxxxxxxxxxx--|
C#|--xxxxxxxxxxxxxxxx--4444444444444444--|

D#|------------|
A#|------------|
F#|--4~----44--|
C#|--4~----44--|
G#|--x~----xx--|
C#|--2~----44--|


VERSE

D#|-------------------------------------------------------|
A#|-------------------------------------------------------|
F#|--xx-4~--xx-4~---4--444-44---xx-4~--xx-4~---4--444-44--|
C#|--xx-4~--xx-4~---4--444-44---xx-4~--xx-4~---4--444-44--|
G#|--xx-2~--xx-2~---x--xxx-xx---xx-2~--xx-2~---x--xxx-xx--|
C#|--xx-x~--xx-x~---2--222-44---xx-x~--xx-x~---2--222-44--|

D#|-------------------------------------------------------|
A#|-------------------------------------------------------|
F#|--xx-4~--xx-4~---4--444-44---xx-4~--xx-4~--44--444-44--|
C#|--xx-4~--xx-4~---4--444-44---xx-4~--xx-4~--44--444-44--|
G#|--xx-2~--xx-2~---x--xxx-xx---xx-2~--xx-2~--22--222-xx--|
C#|--xx-x~--xx-x~---2--222-44---xx-x~--xx-x~--xx--xxx-66--|

D#|------------------------------------|
A#|------------------------------------|
F#|--4-4-4-4-4-4-4-4--4-4--4444-444-444|
C#|--4-4-4-4-4-4-4-4--4-4--4444-444-444|
G#|--2-2-2-2-2-2-2-2--x-x--xxxx-xxx-xxx|
C#|--x-x-x-x-x-x-x-x--4-4--4444-444-444|

D#|----------------------------|
A#|----------------------------|
F#|--4-4-4-4-4-4-4-4--4~---xx--|
C#|--4-4-4-4-4-4-4-4--4~---xx--|
G#|--2-2-2-2-2-2-2-2--x~---xx--|
C#|--x-x-x-x-x-x-x-x--4~---xx--|


CHORUS

D#|--------------------------------------|
A#|--------------------------------------|
F#|--4444444444444444--4444444444444444--|
C#|--4444444444444444--4444444444444444--|
G#|--2222222222222222--xxxxxxxxxxxxxxxx--|
C#|--xxxxxxxxxxxxxxxx--4444444444444444--|

D#|--------------------------------------|
A#|--------------------------------------|
F#|--4444444444444444--4444444444444444--|
C#|--4444444444444444--4444444444444444--|
G#|--2222222222222222--xxxxxxxxxxxxxxxx--|
C#|--xxxxxxxxxxxxxxxx--4444444444444444--|

D#|------------|
A#|------------|
F#|--4~----44--|
C#|--4~----44--|
G#|--x~----xx--|
C#|--2~----44--|


VERSE

D#|-------------------------------------------------------|
A#|-------------------------------------------------------|
F#|--xx-4~--xx-4~---4--444-44---xx-4~--xx-4~---4--444-44--|
C#|--xx-4~--xx-4~---4--444-44---xx-4~--xx-4~---4--444-44--|
G#|--xx-2~--xx-2~---x--xxx-xx---xx-2~--xx-2~---x--xxx-xx--|
C#|--xx-x~--xx-x~---2--222-44---xx-x~--xx-x~---2--222-44--|

D#|-------------------------------------------------------|
A#|-------------------------------------------------------|
F#|--xx-4~--xx-4~---4--444-44---xx-4~--xx-4~--44--444-44--|
C#|--xx-4~--xx-4~---4--444-44---xx-4~--xx-4~--44--444-44--|
G#|--xx-2~--xx-2~---x--xxx-xx---xx-2~--xx-2~--22--222-xx--|
C#|--xx-x~--xx-x~---2--222-44---xx-x~--xx-x~--xx--xxx-66--|

D#|------------------|
A#|------------------|
F#|--4~--4~--4~--4~--|
C#|--4~--4~--4~--4~--|
G#|--2~--x~--x~--x~--|
C#|--x~--4~--6~--8~--|

D#|------------------|
A#|------------------|
F#|--4~--4~--4~--4~--|
C#|--4~--4~--4~--4~--|
G#|--2~--x~--x~--x~--|
C#|--x~--4~--6~--8~--|

D#|--------------------------------------|
A#|--------------------------------------|
F#|--4444444444444444--4444444444444444--|
C#|--4444444444444444--4444444444444444--|
G#|--2222222222222222--xxxxxxxxxxxxxxxx--|
C#|--xxxxxxxxxxxxxxxx--4444444444444444--|

D#|--------------------------------------|
A#|--------------------------------------|
F#|--4444444444444444--4444444444444444--|
C#|--4444444444444444--4444444444444444--|
G#|--xxxxxxxxxxxxxxxx--xxxxxxxxxxxxxxxx--|
C#|--6666666666666666--8888888888888888--|

D#|--------------------------------------|
A#|--------------------------------------|
F#|--4444444444444444--4444444444444444--|
C#|--4444444444444444--4444444444444444--|
G#|--2222222222222222--xxxxxxxxxxxxxxxx--|
C#|--xxxxxxxxxxxxxxxx--4444444444444444--|

D#|--------------------------------------|
A#|--------------------------------------|
F#|--4444444444444444--4444444444444444--|
C#|--4444444444444444--4444444444444444--|
G#|--xxxxxxxxxxxxxxxx--xxxxxxxxxxxxxxxx--|
C#|--6666666666666666--8888888888888888--|


CHORUS

D#|--------------------------------------|
A#|--------------------------------------|
F#|--4444444444444444--4444444444444444--|
C#|--4444444444444444--4444444444444444--|
G#|--2222222222222222--xxxxxxxxxxxxxxxx--|
C#|--xxxxxxxxxxxxxxxx--4444444444444444--|

D#|--------------------------------------|
A#|--------------------------------------|
F#|--4444444444444444--4444444444444444--|
C#|--4444444444444444--4444444444444444--|
G#|--2222222222222222--xxxxxxxxxxxxxxxx--|
C#|--xxxxxxxxxxxxxxxx--4444444444444444--|

D#|--------------------------------------|
A#|--------------------------------------|
F#|--4444444444444444--4444444444444444--|
C#|--4444444444444444--4444444444444444--|
G#|--2222222222222222--xxxxxxxxxxxxxxxx--|
C#|--xxxxxxxxxxxxxxxx--4444444444444444--|

D#|--------------------------------------|
A#|--------------------------------------|
F#|--4444444444444444--4444444444444444--|
C#|--4444444444444444--4444444444444444--|
G#|--2222222222222222--xxxxxxxxxxxxxxxx--|
C#|--xxxxxxxxxxxxxxxx--4444444444444444--|

D#|----------|
A#|----------|
F#|--4~------|
C#|--4~------|
G#|--x~------|
C#|--2~------|


 /   Slide up
 \   Slide down
 h   Hammer-on
 p   Pull-off
 ~   Let Ring
 *   Harmonic
 x   Mute Note
            
Submit corrections

comments powered by Disqus
↑ Back to top | Early November Tabs for Make It Happen. Lyrics for acoustic guitar and electric guitar. 1 Tablatures and chords are parodies/interpretations of the original songs. You may use it for private study, scholarship, research or language learning purposes only