» » »

Long Talks Tabs (ver.2)

Artists:  A B C D E F G H I J K L M N O P Q R S T U V W X Y Z # 

Long Talks Tabs (ver.2)

Early November
Rating:
5/5 (1 vote)

Tabs too difficult? Try these video lessons and learn fast.
                
drop d half step down

   --------------------------------------------------------------------|
   --------------------------------------------------------------------|
   -----9--------------------------------------------------------------|
   --9/11-11-9-7-0-7-6-----4-4-6-6-7-7/9-------------------------------|
   --0------0-0-0------7-7---------------------------------------------|
   ---------------4-4-4-4-0-0-0-0-0-0----------------------------------|


   --------------------------------------------------------------------|
   --------------------------------------------------------------------|
   -------9--9--9--9--9--9--9--9---------------------------------------|
   ----9/11-11-11-11-11-11-11-11-11------------------------------------|
   ----0---------------------------------------------------------------|
   --------------------------------------------------------------------|


   ---------------------------------------------------------------------|
   ---------------------------------------------------------------------|
   ---22222222222222222222222222222222222222222222222222222222222222222-|
   ---22222222222222222222222222222222222222222222222222222222222222222-|
   ---00000000000000000xxxxxxxxxxxxxxxxxxxxxxxx222222222222222222222222-|
   --------------------444444444444444444444444222222222222222222222222-|
            
Tabs too difficult? Try these video lessons and learn fast.




comments powered by Disqus
↑ Back to top | Tablatures and chords are parodies/interpretations of the original songs. You may use it for private study, scholarship, research or language learning purposes only