» » »

Long Talks Tabs (ver.1)

Artists:  A B C D E F G H I J K L M N O P Q R S T U V W X Y Z # 

Long Talks Tabs (ver.1)

Early November
Rating:
5/5 (3 votes)

Hard to play? Try these video lessons and learn fast.
                Alright tuning for this song is dropped D half a step down (as shown) this is a totally 
song took me a while to figure out and I hope yall love it

Eb
Ab
Db
Gb
Bb
Db

Sweet Intro, can be played in a multitude of places but I felt it flowed best this way. 
played throughout the song so just listen for it.


-------5-------------------------------------------------------------|
---4h6-----4---------------------------------------------------------|
---------------7---4---7---6---2---2---2---4---4---6---6---7---9---9-|
-0-------0---0---0---0---0---0---0-----------------------------------|
-------------------------------------0---0---0---0---0---0---0---0---|

Chords used are...

--------2------2-|
-2------2------3-|
-2------2------2-|
-2------4--------|
--------4--------|
--------4--------|

The part right before the chorus is super easy its just

---0---0---0---0-|
-2---2---2---2---|
-----------------|
-----------------|
-----------------|
-----------------|
            
Hard to play? Try these video lessons and learn fast. | Correct




comments powered by Disqus
↑ Back to top | Tablatures and chords are parodies/interpretations of the original songs. You may use it for private study, scholarship, research or language learning purposes only