» » »

Little Black Heart Tabs (ver.2)

Artists:  A B C D E F G H I J K L M N O P Q R S T U V W X Y Z # 

Little Black Heart Tabs (ver.2)

Early November
Rating:
0/5 (0 votes)

Hard to play? Try these video lessons and learn fast.
                Okay, this is my first tab, and I think it's close. So be gentle. Oh, and if you hit a
you're not suposed to, it still sounds okay. Feel free to let me know my flaws-

Tuning: Eb Ab Db Gb Bb eb

Chords Used: A F#m D Bm7

      "I've got some deep scars..."
VERSE
eb----0----2----2----0----2----|
Bb----2----2----3----2----3----|
Gb----2----2----2----2----2----|
Db----2----2----0----2----4----|
Ab----0----4----x----0----2----|
Eb----x----2----x----x----x----|

      "It's my life..."
CHORUS
eb----0----2----2----2----|
Bb----2----2----3----3----|
Gb----2----2----2----2----|
Db----2----2----0----4----|
Ab----0----4----x----2----|
Eb----x----2----x----x----|

    "So now my head hurts..."
VERSE
eb----0----2----2----0----2----|
Bb----2----2----3----2----3----|
Gb----2----2----2----2----2----|
Db----2----2----0----2----4----|
Ab----0----4----x----0----2----|
Eb----x----2----x----x----x----|

     "My knees start to shake..."
BRIDGE 1
eb----0----2----|
Bb----2----2----|
Gb----2----2----|
Db----2----2----|
Ab----0----4----|
Eb----x----2----|

     "It's my life..."
CHORUS
eb----0----2----2----2----|
Bb----2----2----3----3----|
Gb----2----2----2----2----|
Db----2----2----0----4----|
Ab----0----4----x----2----|
Eb----x----2----x----x----|

     "There's one thing missin'..."
BRIDGE 2(The progression is slower here, so you know, just get the right rhythm)
eb----0----2----2----0----2----|
Bb----2----2----3----2----3----|
Gb----2----2----2----2----2----|
Db----2----2----0----2----4----|
Ab----0----4----x----0----2----|
Eb----x----2----x----x----x----|


     "It's my life..."
CHORUS
eb----0----2----2----2----|
Bb----2----2----3----3----|
Gb----2----2----2----2----|
Db----2----2----0----4----|
Ab----0----4----x----2----|
Eb----x----2----x----x----|

     "Laaa, Laaa, Laaa..."
BRIDGE 3
eb----0----2----2----2----|
Bb----2----2----3----3----|
Gb----2----2----2----2----|
Db----2----2----0----4----|
Ab----0----4----x----2----|
Eb----x----2----x----x----|


OUTRO
eb----x----x----x----x----x----x----|
Bb----x----3----x----x----x----x----|
Gb----2----2----4----6----x----2----|
Db----2----0----4----6----4----2----|
Ab----0----x----2----4----4----0----|
Eb----x----x----x----x----2----x----|
            
Hard to play? Try these video lessons and learn fast. | Correct




comments powered by Disqus
↑ Back to top | Tablatures and chords are parodies/interpretations of the original songs. You may use it for private study, scholarship, research or language learning purposes only