» » »

From Here To La Tabs (ver.3)

Artists:  A B C D E F G H I J K L M N O P Q R S T U V W X Y Z # 

From Here To La Tabs (ver.3)

Early November
Rating:
0/5 (0 votes)

Hard to play? Try these video lessons and learn fast.
                                 From here to LA - The Early November


Tuning: Eb Ab Db Gb Bb eb (half a step down)


   verse
e|---------3----------3----------3------------------------------------------|
B|---------3----------3----------3------------------------------------------|
G|--------------------2-----------------------------------------------------|
D|-------------------------------2--------2p0h2-2p0h2-2p0h2-----------------|
A|-------------------------------3------------------------------------------|
E|---------3----------2-----------------------------------------------------|


   bridge    ...the rain
e|------------------3--------------2----------------2-----------------------|
B|----0-------------3--------------3----------------3-----------------------|
G|----0----------------------------2----------------2-----------------------|
D|----2-------------2-------------------------------------------------------|
A|----2-------------3-------------------------------------------------------|
E|--------------------------------------------------------------------------|

   chorus  .... from here to LA
e|---3-----------3------------3---------------------------------------------|
B|---3-----------3------------3---------------------------------------------|
G|---------------2----------------------------------------------------------|
D|----------------------------2---------2p0h2-2p0h2-2p0h2-------------------|
A|----------------------------3---------------------------------------------|
E|---3-----------2----------------------------------------------------------|

Order: Verse
       Bridge
       Verse
       Bridge
       Chorus
       Verse

| /  slide up
| \  slide down
| h  hammer-on
| p  pull-off
| ~  vibrato
| +  harmonic
| x  Mute note
            
Hard to play? Try these video lessons and learn fast. | Correct




comments powered by Disqus
↑ Back to top | Tablatures and chords are parodies/interpretations of the original songs. You may use it for private study, scholarship, research or language learning purposes only