>
 >
Decoration

Decoration Guitar Tabs

Early November - Decoration chords, tabs, tablatures, lyrics

Guitar lessons | Add/correct | Request | Top 50 tabs Artists:  A B C D E F G H I J K L M N O P Q R S T U V W X Y Z 0-9

Decoration Guitar Tabs – Early November

CD, Sheet music, Poster

Do you like Decoration? Share with your friends now
Bass TabsTabs
Intro
eb|------------------------------------------------------|
Bb|------------------------------------------------------|
Gb|-------11---------11---------7--------7---------------|
Db|----9------9----------9---------9--------9------x2----|
Ab|-7------------7----------7---------7--------7---------|
Db|------------------------------------------------------|

Intro 2/Chorus
(Guitar 1)
eb|--------------------------------|
Bb|--------------------------------|
Gb|--------------------------------|
Db|--5--2--9--7--5--2--9--7--5--5--|
Ab|--5--2--9--7--5--2--9--7--5--5--|
Db|--5--2--9--7--5--2--9--7--5--5--|
[listen to the song for how long to hold each chord, the 555 at the end is held longer)

(Guitar 2)
eb|-----------------------------------------------------------|
Bb|-----------------------------------------------------------|
Gb|------7-----7-----7------7-----11------11------11------11--|
Db|-7/9----7/9---7/9---7/9----7/9----7/9-----7/9------7/9-----|
Ab|-----------------------------------------------------------|
Db|-----------------------------------------------------------|

eb|--------------------------------------------------|
Bb|--------------------------------------------------|
Gb|-14--11-9--7--14--11-9--7-----------------9--12---|
Db|-x---x--x--x--x---x--x--x---second time:--x--x----|
Ab|-12--9--7--5--12--9--7--5-----------------7--10---|
Db|--------------------------------------------------|

Verse
(Guitar 1)
eb|-------------------------------------------------------|
Bb|------8-----8-------3-------3-------3-------3----------|
Gb|--9-9---9-9----5-5----4-5-5---4-5-5---4-5-5--4---------|
Db|--9-9---9-9----5-5------5-5-----5-5-----5-5-------0~~--|
Ab|--7-7---7-7----3-3------3-3-----3-3-----3-3-------0~~--|
Db|--------------------------------------------------0~~--|

(Guitar 2)
eb|---------------------|
Bb|---------------------|
Gb|-9-12--17--16--14----|
Db|-x-x---x---x---x-----|
Ab|-7-10--15--14--12----|
Db|---------------------|

Bridge
eb|-----------------------------|
Bb|-----------------------------|
Gb|-12-11--7/9/7--2/4/2---5---7-|
Db|-----------------------5---7-|
Ab|-----------------------3---5-|
Db|---------------------------0-|

eb|------------------------------------------------------|
Bb|------------------------------------------------------|
Gb|-------11---------11---------7--------7---------------|
Db|----9------9----------9---------9--------9------x2----|
Ab|-7------------7----------7---------7--------7---------|
Db|------------------------------------------------------|





Comments


Popular Early November tabs & chords
Money In His Hand Bass Tabs
We Write The Wrong Bass Tabs
Ever So Sweet 2 Tabs
Everything's Too Cold... But You're So Hot Tabs
Figure It Out Tabs
Figure It Out 1 Tabs
Fluxy Tabs
I Want To Hear You Sad!! 1 Tabs
Sunday Drive 2 Tabs
No Good At Saying Sorry One More Chance Ukulele


Song lyrics



↑ Back to top | Tablatures and chords are parodies/interpretations of the original songs. You may use it for private study, scholarship, research or language learning purposes only
© 2014 AZChords.com Contact us | Privacy policy | DMCA | Add/correct tabs | Request tabs | Top 50 tabs