» » »

Early November, Decoration Bass tabs (ver.1)

Artists:  A B C D E F G H I J K L M N O P Q R S T U V W X Y Z # 

Decoration Bass tabs (ver.1)

Early November Tabs
 Rating:
3.8/5 (5 votes)
Decoration lessons Tabs too difficult? Try these video lessons and learn fast
                ok, so i just thought i should give some of the people who want to learn this song a lil help.

keep in mind this shouldn't be completely accurate but if you work around this i'm sure 
get it.







DROP D




intro:

guitar/drums


chorus: X2                           (1's)                    (11's)
g- -------------------------------------------------------------------|
d- -------------------------------------------------------------------|
a- ----------------------------------1-11-114-44-6-66-9-99-99-11-1111-|
e- 5555555555555555-2222222222222222----------------------------------|

post-chorus:     (18's 19's 21's and 13's)
g- ------------------------------------------------------------|
d- ---------------------------------------------/1919191919-13-|
a- 18181818181818181818181818181818-212121212121---------------|
e- ------------------------------------------------------------|

(light palm mute)
verse:
g- --------------------------------------------------------------|
d- --------------------------------------------------------------|
a- --------------------------------------------------------------|
e- 00---------------00--------------00~------00~------00~---00~--|


pre-chorus:
g- ----------------------|
d- 0~--------------------|
a- 0~--------------------|
e- 0~--------------------|




chorus: X2                           (1's)                    (11's)
g- -------------------------------------------------------------------|
d- -------------------------------------------------------------------|
a- ----------------------------------1-11-114-44-6-66-9-99-99-11-1111-|
e- 5555555555555555-2222222222222222----------------------------------|



post-chorus:     (18's 19's 21's and 13's)
g- ------------------------------------------------------------|
d- ---------------------------------------------/1919191919-13-|
a- 18181818181818181818181818181818-212121212121---------------|
e- ------------------------------------------------------------|

(light palm mute)
verse:
g- --------------------------------------------------------------|
d- --------------------------------------------------------------|
a- --------------------------------------------------------------|
e- 00---------------00--------------00~------00~------00~---00~--|


pre-chorus:
g- ----------------------|
d- 0~--------------------|
a- 0~--------------------|
e- 0~--------------------|




chorus: X2                           (1's)                    (11's)
g- -------------------------------------------------------------------|
d- -------------------------------------------------------------------|
a- ----------------------------------1-11-114-44-6-66-9-99-99-11-1111-|
e- 5555555555555555-2222222222222222----------------------------------|


post-chorus:     (18's 19's 21's and 13's)
g- ------------------------------------------------------------|
d- ---------------------------------------------/1919191919-13-|
a- 18181818181818181818181818181818-212121212121---------------|
e- ------------------------------------------------------------|


pre-chorus:
g- ----------------------|
d- 0~--------------------|
a- 0~--------------------|
e- 0~--------------------|


bridge:
g- ------------------------------------|
d- ------------------------------------|
a- ------------------------------------|
e- 9~--------------11~------------------|

chorus: X2                           (1's)                    (11's)
g- -------------------------------------------------------------------|
d- -------------------------------------------------------------------|
a- ----------------------------------1-11-114-44-6-66-9-99-99-11-1111-|
e- 5555555555555555-2222222222222222----------------------------------|


post-chorus:     (18's 19's 21's and 13's)
g- ------------------------------------------------------------|
d- ---------------------------------------------/1919191919-13-|
a- 18181818181818181818181818181818-212121212121---------------|
e- ------------------------------------------------------------|


thanks and i hope you all can manage the few lil problems with it.

cya
            
Submit corrections

comments powered by Disqus
↑ Back to top | Early November Bass for Decoration. Lyrics for acoustic guitar and electric guitar. Tablatures and chords are parodies/interpretations of the original songs. You may use it for private study, scholarship, research or language learning purposes only