>
 >
Car In 20 1

Car In 20 1 Guitar Tabs

Early November - Car In 20 1 chords, tabs, tablatures, lyrics

Guitar lessons | Add/correct | Request | Top 50 tabs Artists:  A B C D E F G H I J K L M N O P Q R S T U V W X Y Z 0-9

Car In 20 1 Guitar Tabs – Early November

CD, Sheet music, Poster

Do you like Car In 20 1? Share with your friends now
TabsTabs v2
The Car In 20
The Early November
Tuning: half step down(Eb,Ab,Db,Gb,Bb,eb)
First Tab!

Guitar 1
Intro (X2)
e|------------------------------------7p0------------------------------------7--|
B|--7p0-5h7p0-7p0-5h7p0-7p0-------7p0-5h7p0-7p0-5h7-7p5-5h7---------------------|
G|------------------------------------------------------------------------------|
D|------------------------------------------------------------------------------|
A|------------------------------------------------------------------------------|
E |-----------------------------------------------------------------------------|
then
e|-------------------|
B|-------------------|
G|---------5---------|
D|---------X--(x15)--|
A|---------3---------|
E |------------------|

Verse(figure out rhythm for yourself) X2
e|-------------------------------------------|
B|-------------------------------------------|
G|----9--------------------------------------|
D|----X-------7---------5--------------------|
A|----7-------X---------X--------------------|
E |------------5----------3-----------1---0--|

Chorus
e|------------------------------------|
B|------------------------------------|
G|------------------------------------|
D|---------2-----5------7--------10---|
A|---------2-----5------7--------10---|
E |---------0-----3------5---------8--|

Bridge X2
e|-------------------------------|
B|-------------------------------|
G|---------5---------7--------5--|
D|---------X---------X-------X---|
A|---------3---------5--------3--|
E |------------------------------|

Bridge2 X2
e|---------------------|
B|---------------------|
G|--------10---9----5--|
D|---------X---X----X--|
A|---------8---7----3--|
E |--------------------|

Guitar 2
Intro (X2)
e|------------|
B|------------|
G|------------|
D|--------5---|
A|--------X---|
E |--------3--|
then
e|-------------------|
B|-------------------|
G|---------5---------|
D|---------X--(x15)--|
A|---------3---------|
E |------------------|

Verse(figure out rhythm for yourself) X2
e|-------------------------------------------|
B|-------------------------------------------|
G|----5--------------------------------------|
D|----X-------5---------2--------------------|
A|----3-------X---------X--------------------|
E |------------3----------0-----------1---0--|

Chorus
e|----------------------------|
B|----------------------------|
G|---------9----7----------5--|
D|---------X----X----7----X---|
A|---------7----5----X----3---|
E |--------------------5------|

Bridge X2
e|-----------------------------|
B|----------------8----6----5--|
G|----------------5----5---5---|
D|-----------------------------|
A|-----------------------------|
E |----------------------------|

Bridge X2
e|----------------------------|
B|---------------8----10---6--|
G|---------------5----5----5--|
D|----------------------------|
A|----------------------------|
E |---------------------------|

Intro
Verse
Chorus
Intro
Verse
Chorus
Intro
|Bridge  | ___\These 2
|Bridge2| ----/ Play 5 Times
Intro

| /  slide up
| \  slide down
| h  hammer-on
| p  pull-off
| ~  vibrato
| +  harmonic
| x  Mute note
===============================================================================





Comments


Popular Early November tabs & chords
Everynights Another Story Bass Tabs
I Want To Hear You Sad!! Bass Tabs
Ever So Sweet 1 Chords
Ashala Rock Tabs
Come Back 3 Tabs
I Want To Hear You Sad Tabs
Is It My Fault? Tabs
Never Coming Back Tabs
The Rooms Too Coldbut Your So Hot Tabs
Ever So Sweet Ukulele


Song lyrics



↑ Back to top | Tablatures and chords are parodies/interpretations of the original songs. You may use it for private study, scholarship, research or language learning purposes only
© 2014 AZChords.com Contact us | Privacy policy | DMCA | Add/correct tabs | Request tabs | Top 50 tabs