» » »

Call Off The Bells Tabs (ver.1)

Artists:  A B C D E F G H I J K L M N O P Q R S T U V W X Y Z # 

Call Off The Bells Tabs (ver.1)

Early November
Rating:
0/5 (0 votes)

Hard to play? Try these video lessons and learn fast.
                

(/) Slide Up
(\) Slide Down
(h) Hammer On
(m) Mute
(T) play with thumb

Tuned half step down

Intro

Eb|-------------------------------------------------------------------|
Bb|--------------------------------0----------8/10\4-----3-----3-x-3--|
Gb|--5/7\5\4--5-----5/7\5\4--4----0-----------7/9 \5----4-4----4-x-4--|
Db|--7/9\7\5--------7/9\7\5----0h2---------------------5---5---5-x-5--|
Ab|--------------------------3------------------------6------3-----3--|
Eb|-----------5-----------------------------0-------------------------|
                      T
Verse (x2)

"Something in the way I..."
Eb|----------------3-----------------------------------------------------|
Bb|-----------------------------------0----------8/10\4-----3-----3-x-3--|
Gb|--5/7\5\4--5---5----5/7\5\4--4----0-----------7/9 \5----4-4----4-x-4--|
Db|--7/9\7\5------5----7/9\7\5----0h2---------------------5---5---5-x-5--|
Ab|-----------------------------3------------------------6------3-----3--|
Eb|-----------5---5----------------------------0-------------------------|
              T   T

Chorus (x2)

Chords were a little tricky to figure out. This is what I got.
Listen for strumming patterns.

"That you've grown from..."
Eb|--3---/7-------3--------|
Bb|--3---/8---7---3--------|
Gb|--4---/7---7---4--/5-4--|
Db|--5---/9---7---5--/4-4--|
Ab|--5---/7---5---3--/5-5--|
Eb|--3---------------------|

Intro

verse (x2)

Bridge

"Once upon a time..."
Eb|--------------------3-2--|
Bb|--1-----1-----0-----3-3--|
Gb|--0-----0-----0-----2-2--|
Db|--2-----2-----2-----0-0--|
Ab|--0-----3-----2----------|
Eb|--------------0----------|

End with intro
            
Hard to play? Try these video lessons and learn fast. | Correct




comments powered by Disqus
↑ Back to top | Tablatures and chords are parodies/interpretations of the original songs. You may use it for private study, scholarship, research or language learning purposes only