» » »

Early November, Ashala Rock Tabs (ver.1)

Artists:  A B C D E F G H I J K L M N O P Q R S T U V W X Y Z # 

Ashala Rock Tabs (ver.1)

Early November Tabs
Rating:
3/5 (3 votes)
Ashala Rock lessons Tabs too difficult? Try these video lessons and learn fast
                The Early November
Tuning: Db Ab Db Gb Bb Eb


The other tabs for this song are good, but they're not
really specific, this is how my band does it.
It's a little different, but it's the basic structure of the song.

Intro: For the intro one guitar does harmonics
and the other one goes between two chords.

Gtr. 1
---------      --------------|
--(7)----      --------------|
---------      -(5)----------|
---------      -----(4)------|
---------      --------------|
---------      --------------|
start the harmonics on beat 3! of the chords

Gtr. 2
---------       ------------|
---------       ------------|
---7-----       ----7-------|
---5-----       ----0-------|
---5-----       ----0-------|
---5-----       ----0-------|
"As we crawl"   "Stairs"

Verse
Both Guitars
------------------------------------------------|
---------------------7------8--7----------------|
---------------------7------7--7----------------|
--0-0-0----0-0-0-0------------------------------|
--0-0-0----0-0-0-0-----0-0----0---0-0-----------|
--0-0-0----0-0-0-0-----0-0----0---0-0-----------|
Palm mute  . . . .     . .    .   . .


------------------------------------------------|
------------------------------------------------|
------------------------------------------------|
--5-5--5--5-5--5--5-5--5--5-5--5----------------|
--5-5--5--5-5--5--5-5--5--5-5--5----------------|
--5-5--5--5-5--5--5-5--5--5-5--5----------------|
  . .     . .     . .     . .

do that phrase 4 times, then do this

Gtr. 1
-------------------------------------|
-------------------------------------|
---7-7-7-7-7-7-7-7-7-7-7-7-7-7-7-7---|
---7-7-7-7-7-7-7-7-7-7-7-7-7-7-7-7---|
---5-5-5-5-5-5-5-5-5-5-5-5-5-5-5-5---|
---5-5-5-5-5-5-5-5-5-5-5-5-5-5-5-5---|

Gtr. 2
--------------------------------------|
--------------------------------------|
---7-7-7-7-7-7-7-12-12-12-12-12--11---|
---7-7-7-7-7-7-7--x--x--x--x--x---x---|
---5-5-5-5-5-5-5-12-10-10-10-10---9---|
---5-5-5-5-5-5-5----------------------|

Chorus:
Both Guitars
--------------------------------------|
--------------------------------------|
---7--7--7-7-7-7---7--7--7-7-7-7------|
---7--7--7-7-7-7---7--7--7-7-7-7------|
---0--0--0-0-0-0---0--0--0-0-0-0------|
--------------------------------------|

--------------------------------------|
--------------------------------------|
---7--7--7-7-7-7---7--7--7-7-7-7------|
---7--7--7-7-7-7---7--7--7-7-7-7------|
---5--5--5-5-5-5---5--5--5-5-5-5------|
---5--5--5-5-5-5---5--5--5-5-5-5------|

do that twice

the 3rd time they are straight 16th notes

then the 4th time do the rhythm again
(you can listen to the song for the rhythm)


Post Chorus

Gtr. 1
------------------- -------------------|
------------------- -------------------|
----7-------------- ----7--------------|
----0-------------- ----0--------------|
----0-------------- ----0--------------|
----0-------------- ----0--------------|
(let the chords ring)
Gtr. 2
------------------- ----------------------------------|
------------------- ----------------------------------|
----7-------------- -7-7-7-7-7-7-7-7-7-7-7-7-7-7-7-7--|
----0-------------- -x-x-x-x-x-x-x-x-x-x-x-x-x-x-x-x--|
----0-------------- -5-5-5-5-5-5-5-5-5-5-5-5-5-5-5-5--|
----0-------------- ----------------------------------|

For the 2nd verse play the verse phrase 2 times

then it goes like this:
Both Guitars
----------------------------------- ---------------------------------|
----------------------------------- ---------------------------------|
-7-7-7-7-7-7-7-7-7-7-7-7-7-7-7-7--- -7-7-7-7-7-7-7-7-7-7-7-7-7-7-7-7-|
-7-7-7-7-7-7-7-7-7-7-7-7-7-7-7-7--- -7-7-7-7-7-7-7-7-7-7-7-7-7-7-7-7-|
-x-x-x-x-x-x-x-x-x-x-x-x-x-x-x-x--- -5-5-5-5-5-5-5-5-5-5-5-5-5-5-5-5-|
-7-7-7-7-7-7-7-7-7-7-7-7-7-7-7-7--- -5-5-5-5-5-5-5-5-5-5-5-5-5-5-5-5-|

Gtr. 1
----------------------------------- ---------------------------------|
----------------------------------- ---------------------------------|
----------------------------------- ---------------------------------|
-0--0--0-0--0-0-0-0-0-0-0-0-0-0---- -5-5-5-5-5-5-5-5-5-5-5-5-5-5-5-5-|
-0--0--0-0--0-0-0-0-0-0-0-0-0-0---- -5-5-5-5-5-5-5-5-5-5-5-5-5-5-5-5-|
-0--0--0-0--0-0-0-0-0-0-0-0-0-0---- -5-5-5-5-5-5-5-5-5-5-5-5-5-5-5-5-|
(triplet)

Gtr. 2
---------------------------------------- ---------------------------------|
---------------------------------------- ---------------------------------|
----------------12-12-12-12-11-11-11-11- -7-7-7-7-7-7-7-7-7-7-7-7-7-7-7-7-|
-0--0--0-0--0-0--x--x--x--x--x--x--x--x- -x-x-x-x-x-x-x-x-x-x-x-x-x-x-x-x-|
-0--0--0-0--0-0-10-10-10-10--9--9--9--9- -5-5-5-5-5-5-5-5-5-5-5-5-5-5-5-5-|
-0--0--0-0--0-0------------------------- ---------------------------------|
(triplet)


Chorus is the same


2nd Post Chorus

Both Guitars
let the chord ring
--------------------    --------------|
--------------------    --------------|
---7----------------    --------------|
---0----------------    ---0--0-0--0--|
---0----------------    ---0--0-0--0--|
---0---------------- 4x ---0--0-0--0--|


This is Played til the end

Gtr. 1
----------------------------------|
----------------------------------|
--7--7-7--7--7-7--7--7-7--7--7-7--|
--7--7-7--7--7-7--7--7-7--7--7-7--|
--x--x-x--5--5-5--4--4-4--0--0-0--|
--7--7-7--5--5-5--4--4-4--0--0-0--|

The 2nd guitar plays that 4x, then it splits
-------------------------------------------|
-------------------------------------------|
--14--14-14--12--12-12--11--11-11--7--7-7--|
---x---x--x---x---x--x---x---x--x--x--x-x--|
--12--12-12--10--10-10---9---9--9--5--5-5--|
-------------------------------------------|

End like this
-------------------------------------------|
-------------------------------------------|
----7---7--7----7---7--7----7--------------|
----7---7--7----7---7--7----7--------------|
----5---5--5----4---4--4----0--------------|
----5---5--5----4---4--4----0--------------|
                            (let ring)

So there you have it
it's pretty much exact with
some difference in the voicings.
You can mess with whatever you see fit,
but give that a shot.

Have Fun,
Gerra
            

comments powered by Disqus
↑ Back to top | Early November Tabs for Ashala Rock. Lyrics for acoustic guitar and electric guitar. Tablatures and chords are parodies/interpretations of the original songs. You may use it for private study, scholarship, research or language learning purposes only