» » »

Early November, All We Ever Needed Bass tabs (ver.3)

Artists:  A B C D E F G H I J K L M N O P Q R S T U V W X Y Z # 

All We Ever Needed Bass tabs (ver.3)

Early November Tabs
Rating:
0/5 (0 votes)
All We Ever Needed lessons Tabs too difficult? Try these video lessons and learn fast
                The Early November

intro
g--------------------------------------------|
d--------------------------------------------|
a----6666666-8888888/------------------------|
e---------------------4444444-66666668-------|

g----------------------------|
d-------5h6------------------|
a---6--------6---------------|  x2
e--------------64------------|

verse 1
no bass in first part of verse
g-------------------------------------------------------------------|
d-------------------------------------------------------------------|
a-666666666---------------------------------------------------------|
e-----------66666666-444444444444444--------------------------------|

second time through pause for a beat or 2

chorus 1
g---------------------------------------------------------------|
d---------------------------------------------------------------|
a----6666666-8888888/-------------------------------------------|
e---------------------4444444-66666668--------------------------|
end of chorus thingy
g---------------------------------------------|
d---------------------------------------------|
a--66666666666--------------------------------|
e-------------4444668888----------------------|

second part of intro

verse 2
variation 1
g--------------------|
d--------------------|
a-6------------------|
e---6-4---4/0--------|
variation 2
g----------------------------------------------|
d----------------------------------------------|
a-6666666--------------------------------------|
e---------6666666444444444444------------------|

variation 1
then variation2 twice
then variation 1

chorus
chorus ending thingy
chorus

chorus ending the second time :P

g--------------|
d--------------|
a--------------|
e---6-8-6------|
chorus some more

outro

g-----------------------------|
d------5h6--------------------|
a---6--------6-----------6----|
e---------------6-4-6-4-------|
            
Submit corrections

comments powered by Disqus
↑ Back to top | Early November Bass for All We Ever Needed. Lyrics for acoustic guitar and electric guitar. Tablatures and chords are parodies/interpretations of the original songs. You may use it for private study, scholarship, research or language learning purposes only