» » »

Early November, 1000 Times A Day Tabs (ver.2)

Artists:  A B C D E F G H I J K L M N O P Q R S T U V W X Y Z # 

1000 Times A Day Tabs (ver.2)

Early November Tabs
 Rating:
4/5 (20 votes)
1000 Times A Day lessons Tabs too difficult? Try these video lessons and learn fast
                

Tuning:

High E, B, and G strings -    1/2  Step Down
D, A, and Low E strings  -  1 1/2  Step Down

(Eb Bb Gb B Gb Db)

.=PALM MUTE
x=MUTE STRING
/=SLIDE
*=HARMONIC
~=LET RING

This tab is for Schisty Records, Chris Kostic because he deserves to know how to play 
song. Gooey gigglestick. And all of you other TEN fans. Ace getting a little creative with 
tuning here.

Intro (2x)

Eb|--6-----6-----6-----6-----6-------6-----6-----6----|
Bb|------0-----0-----0-----0-----0-------0-----0-----0|
Gb|----6-----6-----6-----6-----6---6---6-----6-----6--|
B |---------------------------------------------------|
Gb|---------------------------------------------------|
Db|--4-----------4-----------4-------------4----------|

Eb|--6-----6-----6-----6-----6-------6-----6-----6----|
Bb|------0-----0-----0-----0-----0-------0-----0-----0|
Gb|----6-----6-----6-----6-----6---6---6-----6-----6--|
B |---------------------------------------------------|
Gb|---------------------------------------------------|
Db|--6-----------6-----------6-------------6----------|

Verse

"1000 times a day..."
Eb|--6-----6-----6-----6-----6-------6-----6-----6----|
Bb|------0-----0-----0-----0-----0-------0-----0-----0|
Gb|----6-----6-----6-----6-----6---6---6-----6-----6--|
B |---------------------------------------------------|
Gb|---------------------------------------------------|
Db|--4-----------4-----------4-------------4----------|

Eb|--6-----6-----6-----6-----6-------6-----6-----6----|
Bb|------0-----0-----0-----0-----0-------0-----0-----0|
Gb|----6-----6-----6-----6-----6---6---6-----6-----6--|
B |---------------------------------------------------|
Gb|---------------------------------------------------|
Db|--6-----------6-----------6-------------6----------|

Chorus

"And all I know..."
Eb|--6-----6-----6-----6-----6-------6-----6-----6----|
Bb|------0-----0-----0-----0-----0-------0-----0-----0|
Gb|----6-----6-----6-----6-----6---6---6-----6-----6--|
B |---------------------------------------------------|
Gb|--4-----------4-----------4-------------4----------|
Db|---------------------------------------------------|

"Is I feel lost without..."
Eb|--6-----6-----6-----6-----6-------6-----6-----6----|
Bb|------0-----0-----0-----0-----0-------0-----0-----0|
Gb|----6-----6-----6-----6-----6---6---6-----6-----6--|
B |---------------------------------------------------|
Gb|--6-----------6-----------6-------------6----------|
Db|---------------------------------------------------|

"You..."
Eb|--6-----6-----6-----6-----6-------6-----6-----6----|
Bb|------0-----0-----0-----0-----0-------0-----0-----0|
Gb|----6-----6-----6-----6-----6---6---6-----6-----6--|
B |--4-----------4-----------4-------------4----------|
Gb|---------------------------------------------------|
Db|---------------------------------------------------|

"...I miss you's not enough."
Eb|--6-----6-----6-----6-----6-------6-----6-----6----|
Bb|------0-----0-----0-----0-----0-------0-----0-----0|
Gb|----6-----6-----6-----6-----6---6---6-----6-----6--|
B |---------------------------------------------------|
Gb|--4-----------4-----------4-------------4----------|
Db|---------------------------------------------------|


Intro 2
Verse 2
Chorus 2

Then it goes into the song ending which is:

Eb|--6-----|--6-----|--6-----|--6-----|
Bb|------0-|------0-|------0-|------0-|
Gb|----6---|----6---|----6---|----6---|
B |--------|--------|--------|--------|
Gb|--------|--4-----|--------|--6-----|
Db|--6-----|--------|--4-----|--------|

enjoy
            
Submit corrections

comments powered by Disqus
↑ Back to top | Early November Tabs for 1000 Times A Day. Lyrics for acoustic guitar and electric guitar. Tablatures and chords are parodies/interpretations of the original songs. You may use it for private study, scholarship, research or language learning purposes only